» » »

Trash Talk - I Block Tabs

Artists:  A B C D E F G H I J K L M N O P Q R S T U V W X Y Z # 

I Block Tabs

(ver. 1) Click to play this song!
Trash Talk
 Rating:
4.3/5 (13 votes)

 I Block lessons Tabs too difficult? Try these video lessons and learn fast
 
                [Intro]

(0:07)
D|-------------------------------|    |---|
A|-------------------------------|    |---|
F|-6-5-3-----------6-------6-5-3-|    |---|
C|-6-5-3-3/5-5-5-5-6-3/5-5-6-5-3-| x4 |-5-|
G|-4-3-1-3/5-5-5-5-4-3/5-5-4-3-1-|    |-5-|
D|-------1/3-3-3-3---1/3-3-------|    |-3-|


(0:27)
D|---|-----------------|
A|---|-----------------|
F|---|-3-3-5-5-3-3-6-6-|
C|-5-|-3-3-5-5-3-3-6-6-| x6
G|-5-|-1-1-3-3-1-1-4-4-|
D|-3-|-----------------|
       N N N N N N N N
(0:32)
D|-----------------|    |---|
A|-----------------|    |---|
F|-6-6-3-3-5-5-2-2-|    |---|
C|-6-6-3-3-5-5-2-2-| x4 |-5-|
G|-4-4-1-1-3-3-0-0-|    |-5-|
D|-----------------|    |-3-|
   N N N N N N N N

(0:42)
D|-------------------------------|
A|-------------------------------|
F|-6-5-3-----------6-------6-5-3-|
C|-6-5-3-3/5-5-5-5-6-3/5-5-6-5-3-| x4
G|-4-3-1-3/5-5-5-5-4-3/5-5-4-3-1-|
D|-------1/3-3-3-3---1/3-3-------|


[Outro]

(1:00)
D|-----------------|    |---|
A|-----------------|    |---|
F|-----6-----6-5-3-|    |---|
C|-5---6-5---6-5-3-| x4 |-5-|
G|-5---4-5---4-3-1-|    |-5-|
D|-3-----3---------|    |-3-|
                       (Let ring out)            
Submit corrections


        I Block lessons Hard to play? Try these video lessons and learn fast I Block lessons
        
↑ Back to top | Tablatures and chords for acoustic guitar and electric guitar, ukulele, drums are parodies/interpretations of the original songs. You may use it for private study, scholarship, research or language learning purposes only