» » »

Trapt - Victim Bass

Artists:  A B C D E F G H I J K L M N O P Q R S T U V W X Y Z # 

Victim Bass

(ver. 1) Click to play this song!
Trapt
 Rating:
4/5 (4 votes)


 Victim lessons Tabs too difficult? Try these video lessons and learn fast
 
                "Victim" by Trapt


This tab takes you through the entire song. Listen to the song to get a feel how the 
goes.

Standard tuning EADG

Intro (No bass)

Verse 1 (Let me play..)
G|----------------|
D|4--4------------|
A| -4-4--5--5h7---|
E|---------5---7--| Play 4x

Pre-chorus (I want your eyes, I want your eyes on me..)
G|-------------------------|
D|4444-4444-4--------------|
A|------------5555---------|
E|-----------------7777-7--|

G|-------------------------|
D|4444-4444-4--------------|
A|------------5555---------|
E|-----------------7777----|

Chorus (I want to be your new victim..)
G|------------------|
D|4444--7-----------|
A|----55-5----7777--|
E|--------7777------| Play 4x

Verse 2 (No regrets..)
G|----------------|
D|4--4------------|
A| -4-4--5--5h7---|
E|---------5---7--| Play 3x

Verse 2 (Do I wanna be, well you never asked me)
G|----------------|
D|4---------------|
A| ------5--------|
E|------------7-2-|

Pre-chorus (I want your eyes, I want your eyes on me..)
G|-------------------------|
D|4444-4444-4--------------|
A|------------5555---------|
E|-----------------7777-7--|

G|-------------------------|
D|4444-4444-4--------------|
A|------------5555---------|
E|-----------------7777----|

Chorus (I want to be your new victim..)
G|------------------|
D|4444--7-----------|
A|----55-5----7777--|
E|--------7777------| Play 4x

Bridge part 1 (Whisper: I'm right here..)
No bass

Bridge part 2 (I'm right here, I'm right here..) ((This part is pretty tricky, the bass 
not on the count))
G|-6------6----------------|
D|4-4---44-4----7----------|
A|-------------5-5-----9---|
E|-------------------77-7--| Play 4x

Bridge part 3 (...so come and get me)
G|-------------------------|
D|4444-4444-4--------------|
A|------------5555---------|
E|-----------------7777-7--|

G|-------------------------|
D|4444-4444-4--------------|
A|------------5555---------|
E|-----------------7777----|

Chorus (I want to be your new victim..)
G|------------------|
D|4444--7-----------|
A|----55-5----7777--|
E|--------7777------| Play 8x

Outro
G|-------------------------|
D|4444-4444-4--------------|
A|------------5555---------|
E|-----------------7777-7--| play 2x


| /  slide up
| \  slide down
| h  hammer-on
| p  pull-off
| ~  vibrato
| +  harmonic
| x  Mute note
            
Submit corrections



        Victim lessons Hard to play? Try these video lessons and learn fast Victim lessons
        
↑ Back to top | Tablatures and chords for acoustic guitar and electric guitar, ukulele, drums are parodies/interpretations of the original songs. You may use it for private study, scholarship, research or language learning purposes only