» » »

Traditional Irish - Galway Shawl Tabs

Artists:  A B C D E F G H I J K L M N O P Q R S T U V W X Y Z # 

Galway Shawl Tabs

(ver. 1) Click to play this song!
Traditional Irish
 Rating:
4/5 (24 votes)

 Galway Shawl lessons Tabs too difficult? Try these video lessons and learn fast
 
                Tuning: Drop-D

e|------------------------0-0-2-5------5-7-5-2-0---------------------------------------------|
B|------3--3-2-0--------3-----3------7-----------3-------------------------------------------|
G|---------------2----2-------2--------------------------------------------------------------|
D|---------4---------------------------------------------------------------------------------|
A|-------------------------------------------------------------------------------------------|
E|---0--------------0--------------5---------0-----------------------------------------------|

e|-----0-2-0-2-0------------------------------0-0-2-5------5-7-5-2-0-------------------5-----|
B|-----2---2---2-3-----0-3-3-2-0------------3------------7-----------3----3-3-2-0------------|
G|-------------------------------2--------2----------------------------------------2---------|
D|-----------------------------------------------------------------------------------4-------|
A|-------------------------------------------------------------------------------------------|
E|---0--------------5------4--------5-4-0--------------5---------0------5-------0--------0---|            
Submit corrections


        Galway Shawl lessons Hard to play? Try these video lessons and learn fast Galway Shawl lessons
        
↑ Back to top | Tablatures and chords for acoustic guitar and electric guitar, ukulele, drums are parodies/interpretations of the original songs. You may use it for private study, scholarship, research or language learning purposes only