Home » T » Tracy Lawrence »

Tracy Lawrence - Life Don't Have to be so Hard Tabs

Artists:  A B C D E F G H I J K L M N O P Q R S T U V W X Y Z # 

Life Don't Have to be so Hard Tabs

(ver. 1) Click to play this song!
Tracy Lawrence
Finally, a country song that isn't about a girl leaving a guy. 
(or the other way around)

e--------------------------------------------------------------
B--------------------------------------------------------------
G---0----------------------------------------------------------
D--------1----3----1---------1--------------1----3----3s5---
A------------------------3--------------3----------------------
E----------------------------------------------------------------

e--------------------------------------------------------------
B---------------------------------------------------------------
G---0----------------------------------------------------------
D--------1----3----1---------1--------------1----3----1------
A------------------------3--------------3----------------------
E----------------------------------------------------------------



            
Submit corrections

↑ Back to top | Tablatures and chords for acoustic guitar and electric guitar, ukulele, drums are parodies/interpretations of the original songs. You may use it for private study, scholarship, research or language learning purposes only