» » »

Toy Dolls - Nellie The Elephant Bass

Artists:  A B C D E F G H I J K L M N O P Q R S T U V W X Y Z # 

Nellie The Elephant Bass

(ver. 2) Click to play this song!
Toy Dolls
 Rating:
4/5 (4 votes)

 Nellie The Elephant lessons Tabs too difficult? Try these video lessons and learn fast
 
                the bass does not play on the first verse of this song instead comes in on the chourus 
then continues whole way through. this song is best played with a pick instead of fingers 
it a much better sound and is easier this way.

chourus 1

G-----------------------------------|
D------------------7777---------999-|
A7777777777----7777----7777-9999----|
E----------5555---------------------|


G------------------------------------|
D------------------7777--------------|
A7777777777----7777----7777-9999-9-7-|
E----------5555-------------------7--|

verse 2

G------------------------------|
D--------------------9---------|
A7---7-7---------9-------9-----|
E--7-----2-4-2-7---9---2---9-7-|

chourus 1 is played once and then there is a slight break leading up to second half of 
which is played like this.

G----------|
D----------|
A3-3-333333
E----------

chourus 2

G-----------------------------------------|
D-----------------8888-------------101010-|
A888888888----8888----8888-10101010-------|
E---------6666----------------------------|

Break

G----3333----3333------------------|
D3333----3333----------------------|
A--------------------3333----3--33-|
E----------------3333----3333------|

chorus 2 is then repeated and the song finishes like this

G----------------------------------------------------------------|
D----------------8888--------------------------------------------|
A88888888----8888----8888-101010101010-151515151515-202020202020-|
E--------6666----------------------------------------------------|
            
Submit corrections


        Nellie The Elephant lessons Hard to play? Try these video lessons and learn fast Nellie The Elephant lessons
        
↑ Back to top | Tablatures and chords for acoustic guitar and electric guitar, ukulele, drums are parodies/interpretations of the original songs. You may use it for private study, scholarship, research or language learning purposes only