» » »

Toy Dolls - Duelling Banjos Tabs

Artists:  A B C D E F G H I J K L M N O P Q R S T U V W X Y Z # 

Duelling Banjos Tabs

(ver. 2) Click to play this song!
Toy Dolls
 Rating:
4/5 (4 votes)

 Duelling Banjos lessons Tabs too difficult? Try these video lessons and learn fast
 
                Guitar 1 (banjo)
      G
e------------------------------------------------------------------------
B---------------3-3--3-5--3=========----------3-3--3-5--3----------------
G---------------4-4--4-5--4=========----------4-4--4-5--4----------------
D------------------------------------------------------------------------
A------------------------------------------------------------------------
E------------------------------------------------------------------------
         
Guitar 2
         G
e------------------------------------------------------------------------
B---0-0--0-1--0=========--------0-0--0-1--0=========---------------------
G---0-0--0-0--0=========--------0-0--0-0--0=========---------------------
D---0-0--0-2--0=========--------0-0--0-2--0=========---------------------
A--------------------------------------------------------------0--2--3---
E------------------------------------------------------3-3--3------------



Guitar 1 (banjo)
   G
e------------------------------------------------------------------------
B---------------------0--1--3--1--0--------------------------------------
G----------0-0--0--2-------------------------------------------0-0--0--2-
D------------------------------------------------------------------------
A------------------------------------------------------------------------
E------------------------------------------------------------------------

Guitar 2

e------------------------------------------------------------------------
B------------------------------------------------------------------------
G------------------------------------------------------------------------
D--0--------------------------------------------------0------------------
A-----3--2-----------------------------------0--2--3-----3--2------------
E------------------------------------3-3--3------------------------------



Guitar 1 (banjo)
                 C
e-----------------------------------------------------0--1--3--1--0------
B-0--1--3--1--0----------------------------1-1--1--3---------------------
G------------------------------------------------------------------------
D------------------------------------------------------------------------
A------------------------------------------------------------------------
E-----------------------------------------------------------------------

Guitar 2
                 C
e------------------------------------------------------------------------
B------------------------------------------------------------------------
G---------------------------------0--------------------------------------
D------------------------0--2--3-----3--2--------------------------------
A----------------3-3--3--------------------------------------------------
E------------------------------------------------------------------------



Guitar 1 (banjo)
       G                                 D
e-----------------------------------------------------------------0-2-3--
B------------------------------0-1-3-1-0--------------------3-3-3--------
G---------------------0-0--0-2-------------------------------------------
D------------------------------------------------------------------------
A------------------------------------------------------------------------
E------------------------------------------------------------------------

Guitar 2
       G                                  D 
e------------------------------------------------------------------------
B------------------------------------------------------------------------
G---------------------------------------------------0-2-0----------------
D------------------0----------------------0-0-0-2-4-------4--------------
A-------0-2-0--3-2-------------------------------------------------------
E-3-3-3------------------------------------------------------------------



Guitar 1 (banjo)
   G 
e--3--2------------------------------------------------------------------
B-----------3-3--3-5--3------------3-3--3-5--3---------------------------
G-----------4-4--4-5--4------------4-4--4-5--4---------------------------
D------------------------------------------------------------------------
A------------------------------------------------------------------------
E------------------------------------------------------------------------

Guitar 2
   G
e------------------------------------------------------------------------
B-0-0--0-1--0-----------0-0--0-1--0-------------0-1-3-0-1---0---------0-1
G-0-0--0-0--0-----------0-0--0-0--0-----------------------2---0-2--------
D-0-0--0-2--0-----------0-0--0-2--0--------------------------------------
A------------------------------------------------------------------------
E------------------------------------------------------------------------




Guitar 1 (banjo)
 G
e------------------------------------------------------------------------
B-------------0-1-3-0-1---0-------------0---0------------0---------------
G-----------------------2---0--2--0-0-2---0----2--0-0--2---0-------------
D------------------------------------------------------------------------
A------------------------------------------------------------------------
E------------------------------------------------------------------------

Guitar 2
  G
e------------------------------------------------------------------------
B--3-0-1---0---------------------------------0---0-----------------------
G--------2---0-2-----------------------0-0-2---0---2---------------------
D-----------------------------------0------------------------------------
A--------------------------------------------------------------------0-2-
E------------------------------------------------------------------3-----

 


After this the guitar plays a steady bluegrass rythm, the banjo plays a roll. 
(I ll try to TAB a suggestion for guitar when i have some time to spare)
Punctuate the guitar rythm with the licks from the intro. Listen to the recording
Dueling banjos is not the fastest tune on the album!!



On eletric i play the banjo strum something like this( pick and fingers, tele style) let all string ring as long as possible (indacated with ===)

     G
  e-------------------------------------------
  B----------------3===--------5---------3====
  G-----------0========--------5--0===========
  D----------4-h-5=====-5====--5--4-h-5====5==
  A-------------------------------------------
  E-------------------------------------------
Right hand         3           3         3
             2                 2 2
             p(pick)   p       p p          p
            
Submit corrections


        Duelling Banjos lessons Hard to play? Try these video lessons and learn fast Duelling Banjos lessons
        
↑ Back to top | Tablatures and chords for acoustic guitar and electric guitar, ukulele, drums are parodies/interpretations of the original songs. You may use it for private study, scholarship, research or language learning purposes only