Home » T » Toto »

Toto - Falling In Between Tabs

Artists:  A B C D E F G H I J K L M N O P Q R S T U V W X Y Z # 

Falling In Between Tabs

(ver. 1) Click to play this song!
Toto
 Rating:
4.4/5 (7 votes)
                (Intro)
***************************
TOTO                      *
Falling In Between        *
***************************



Guitar tuning: Drop D
Notes: The fill is a tricky 16th notes pentatonic lick. Requires some weeks of serious playing
if you wanna play it right and fast.


RIFF 1
E ------------------------------------------------------------------------|
B ------------------------------------------------------------------------|
G ------------------------------------------------------------------------|
D -----0-0-0--0-0--0-0-0--0-0---------------------------------------------|
A -----0-0-0--0-0--0-0-0--0-0---------------------------------------------|
D -----0-0-0--0-0--0-0-0--0-0---------------------------------------------|

FILL 1
E ------------------------------------------------------------------------|
B ------------8-7-5---5---------------------------------------------------|
G ------------------7---7-5-7-----5-7-5-----------------------------------|
D ----------------------------5-7-----------------------------------------|
A ------------------------------------------------------------------------|
D ------------------------------------------------------------------------|

MINUTE 0:48

E ------------------------------------------------------------------------|
B ------2-2--------------2-2----------------------------------------------|
G ------2-2---3-2--0-2---2-2----------------------------------------------|
D ------2-2--------------2-2---3-2---0-2----------------------------------|
A ------0-0--------------0-0----------------------------------------------|
D ------------------------------------------------------------------------|


MINUTE 1:49

   Repeat 2 times
E --------------------|
B ---------3----------|
G ------2-----2-------|
D ---2----------------|
A --------------------|
D --------------------|


   Repeat 2 times
E --------------------|
B ---------5----------|
G ------2-----2-------|
D ---2----------------|
A --------------------|
D --------------------|


   Repeat 2 times
E --------------------|
B ---------15---------|
G ------14-----14-----|
D ---14---------------|
A --------------------|
D --------------------|


   Repeat 2 times
E --------------------|
B ---------17---------|
G ------14-----14-----|
D ---14---------------|
A --------------------|
D --------------------|


   Repeat 2 times
E ---------------------|
B ---------------------|
G ---8-8-8--8-8--8-8-8-|
D ---7-7-7--7-7--7-7-7-|
A ---6-6-6--6-6--6-6-6-|
D ---------------------|

RIFF 2
E ------------------------------------------------------------------------|
B ------------------------------------------------------------------------|
G -------------0-5-------------------------0-5----------------------------|
D ---------0-4------5--5-3-0-3-5-------0-4------5--5-3-0-7-5--------------|
A -----0-3----------5--5-3-0-3-5---0-3----------5--5-3-0-7-5--------------|
D ------------------5--5-3-0-3-5----------------5--5-3-0-7-5--------------|

CHORDS:

Dm7, Em7, Cm7, C, E9+

E -----5-5----7-7----3-3---------3------------|
B -----6-6----8-8----4-4----1----3------------|
G -----5-5----7-7----3-3----0----1------------|
D -----7-7----9-9----5-5----2----2------------|
A -----5-5----7-7----3-3----3-----------------|
D --------------------------------------------|

CHORDS:

Dm7, Em7, Cm7, D

E -----5-5----7-7----3-3----3-2----------------|
B -----6-6----8-8----4-4----3-3-3--------------|
G -----5-5----7-7----3-3----2-2-2--------------|
D -----7-7----9-9----5-5----0-0-0--------------|
A -----5-5----7-7----3-3-----------------------|
D ---------------------------------------------|


Ending CHORDS:

E -----8-7----5----|
B -----8-7--6-5----|
G -----7-5--5-4----|
D -----7-5--5-4----|
A -----------------|
D -----------------|


Sources: Falling In Between, Falling In Between Live DVD
            
Submit corrections

↑ Back to top | Tablatures and chords for acoustic guitar and electric guitar, ukulele, drums are parodies/interpretations of the original songs. You may use it for private study, scholarship, research or language learning purposes only