Home » T » Toto »

Toto - Child's Anthem Tabs

Artists:  A B C D E F G H I J K L M N O P Q R S T U V W X Y Z # 

Child's Anthem Tabs

(ver. 1) Click to play this song!
Toto
 Rating:
4/5 (4 votes)
                PROPS GO TO: Tobbana

"ToTo: Child's Anthem"
                        Written: David Paich

                          Transcripted by
                      T.o.B / Byterapers inc.


Originally played by piano, but why not try it with guitar.. :)

First hits:
C#m|C#m|C#m|C#m|C#m|G#m|G#m|G#m

Main theme:

    C#m                        B/D#       E                          F#m(11)
E ------------------|------------------|------------------|----------------------------
B --5---5---5---5---|--5---5---7---7---|--9---9---9---9---|--9---9---10----10---------
G ---6---6---6---6--|---6---6---8---8--|---9---9---9---9--|---9---9----9-----9-------
D ----6---6---6---6-|----6---6---9---9-|----9---9---9---9-|----9---9-----9----9-----
A ------------------|------------------|------------------|----------------------------
E ------------------|------------------|------------------|----------------------------

    E/G#               F#m/A          Emaj7      B
E --7---7---7---7---|-------------------------|------------------|----------
B ---9---9---9---9--|--10-----10------9---9---|--7---7---7---7---|----------
G ----9---9---9---9-|----11-----11-----9---9--|---8---8---8---8--|----------
D ------------------|------11-----11----11--11|----9---9---9---9-|----------
A ------------------|-------------------------|------------------|----------
E ------------------|-------------------------|------------------|----------


    B       C#7            F#m                                          E
E ----------------------|------------------------------|----------------7---7---
B --7---7---9-----9-----|--10-----10-----10-----10-----|--10-----10------9---9--
G ---8---8---10----10---|----11-----11-----11-----11---|----11-----11-----9---9-
D ----9---9----9-----9--|------11-----11-----11-----11-|------11-----11---------
A ----------------------|------------------------------|------------------------
E ----------------------|------------------------------|------------------------


    A                                Bm(11)          A/C#
E --9----9----9----9----|--9----9----10----10-----|--12-----12-----12-----12---------
B ---10---10---10---10--|---10---10----10----10---|----10------10-----10----10-------
G -----9----9----9----9-|-----9----9-----9-----9--|------9-------9------9-----9------
D ----------------------|-------------------------|----------------------------------
A ----------------------|-------------------------|----------------------------------
E ----------------------|-------------------------|----------------------------------


    Bm/D          Dmaj7        E                         F#7
E --10-----10-----9----9----|--7---7---7---7---|-7---7---9-----9---------------
B ----12-----12----10---10--|---9---9---9---9--|--9---9---11----11-------------
G ------11-----11----11--11-|----9---9---9---9-|---9---9----9-----9------------
D --------------------------|------------------|-------------------------------
A --------------------------|------------------|-------------------------------
E --------------------------|------------------|-------------------------------


    Bm                                           F#m7
E --10-----10-----10-----10-----|--10-----10-----9----9----------------------
B ----12-----12-----12-----12---|----12-----12----10---10--------------------
G ------11-----11-----11-----11-|------11-----11----9----9-------------------
D ------------------------------|--------------------------------------------
A ------------------------------|--------------------------------------------
E ------------------------------|--------------------------------------------


    G                  Em7(9)
E --7---7---7---7---|--10---10---10---10-----|---------------------------------
B ---8---8---8---8--|----12---12---12---12---|---------------------------------
G ----7---7---7---7-|------12---12---12---12-|---------------------------------
D ------------------|------------------------|---------------------------------
A ------------------|------------------------|---------------------------------
E ------------------|----------------------|---------------------------------


    D/A                  A                      C#m/G#             G#
E --10----10----10----|--9----9----9----9----|--9---9---9---9---|--8---8---8---8-------
B ----10----10----10--|---10---10---10---10--|---9---9---9---9--|---9---9---9---9------
G ------9-----9-----9-|-----9----9----9----9-|----9---9---9---9-|----8---8---8---8-----
D --------------------|----------------------|------------------|----------------------
A --------------------|----------------------|------------------|----------------------
E --------------------|----------------------|------------------|----------------------



Version with solo's soon.
Feel free to comment if there's errors.
+bugfixed by jucciz
            
Submit corrections

↑ Back to top | Tablatures and chords for acoustic guitar and electric guitar, ukulele, drums are parodies/interpretations of the original songs. You may use it for private study, scholarship, research or language learning purposes only