» » »

Toshio Masuda - Oh Student And Teacher Affection Tabs

Artists:  A B C D E F G H I J K L M N O P Q R S T U V W X Y Z # 

Oh Student And Teacher Affection Tabs

(ver. 2) Click to play this song!
Toshio Masuda
 Rating:
4/5 (4 votes)

 Oh Student And Teacher Affection lessons Tabs too difficult? Try these video lessons and learn fast
 
                                    Student and Teacher Affection


                             Toshiro Masuda

                                                     9b: Full Bending
E||---------------------------|---------------------|---------------------|
B||---------------------------|---------------------|---------------------|
G||--/9----/11----------\9----|--(9)----------------|--9b-----------------|
D||---------------------------|---------------------|---------------------|
A||---------------------------|---------------------|---------------------|
E||---------------------------|---------------------|---------------------|

|--------------------|-------------------|-----------------------|
|--------------------|-------------------|-----------------------|
|--(9b)--------------|-------------------|-----------------------|
|--------------------|-------------------|--/11--------\9--------|
|--------------------|-------------------|-----------------------|
|--------------------|-------------------|-----------------------|

|----------------------|-------------------||-----------------------------|
|----------------------|-------------------||--------------12--10--12~----|
|----------------------|-------------------||*--/11-----------------------|
|--/7--------\9--------|-------------------||*----------------------------|
|----------------------|-------------------||-----------------------------|
|----------------------|-------------------||-----------------------------|


                         9b: Full Bending
|---------------------|---------------------------|-------------------|
|-(12)~---------------|---------------------------|-------------------|
|---------------------|--9b---------9-7--9--7--9~-|--(9)--------------|
|---------------------|---------------------------|-------------------|
|---------------------|---------------------------|-------------------|
|---------------------|---------------------------|-------------------|

|------------------------|--------------------|-----------------------------|
|------------------------|--------------------|-----------------------------|
|------------------------|--------------------|-----------------------------|
|--/11-----12--11--9~----|--(9)----------9----|--11----12----14--12--14~----|
|------------------------|--------------------|-----------------------------|
|------------------------|--------------------|-----------------------------|

|--------------------|----------------------------|---------------------|
|--------------------|-------------12--10--12~----|--(12)---------------|
|--------------------|--/11-----------------------|---------------------|
|--(14)--------------|----------------------------|---------------------|
|--------------------|----------------------------|---------------------|
|--------------------|----------------------------|---------------------|


  9b: Full Bending
|---------------------------|-------------------|---------------------------|
|---------------------------|-------------------|---------------------------|
|--9b---------9-7--9--7--9~-|--(9)--------------|---------------------------|
|---------------------------|-------------------|--/11--------12--11--9~----|
|---------------------------|-------------------|---------------------------|
|---------------------------|-------------------|---------------------------|

|--------------------------|---------------------|-----------------------|
|--------------------------|---------------------|-----------------------|
|--------------------------|---------------------|-----------------------|
|--(9)---9----/11----12----|--11~----------------|--7----11----9~--------|
|--------------------------|---------------------|-----------------------|
|--------------------------|---------------------|-----------------------|


                       PART 1
|---------------------|-------------------|-------------------|
|---------------------|-------------------|-------------------|
|---------------------|-------------------|-------------------|
|-(9)~----------------|-------------------|-------------------|
|---------------------|-------------------|-------------------|
|---------------------|-------------------|-------------------|


       X9
|-------------------|-------------------|--------------------||
|-------------------|-------------------|--------------------||
|-------------------|-------------------|-------------------*||
|-------------------|-------------------|-------------------*||
|-------------------|-------------------|--------------------||
|-------------------|-------------------|--------------------||


PART 2.
|-------------------------------|--------------------|-------------------|
|-------------------14--12--14--|---(14)-------------|-------------------|
|--/9----/11--------------------|--------------------|-------------------|
|-------------------------------|--------------------|-------------------|
|-------------------------------|--------------------|-------------------|
|-------------------------------|--------------------|-------------------|

|---------------------------------|--------------------||
|-----------------14--------------|--------------------||
|--/9----/11----------12--10--12--|---12---------------||
|---------------------------------|--------------------||
|---------------------------------|--------------------||
|---------------------------------|--------------------||

[ENGLISH]

Instructions
----------------
Play the song, after the First Repetition, skip the "PART 1" and jump into the "PART 2" 
finish the song.

Tablature Legend
----------------
b - bend
/ -  slide into from below or out of upwards
\ -  slide into from above or out of downwards
~ - vibrato


Coment if u liked it =D

[ESPAÑOL]

Instrucciones
-------------------
Toca la cancion, despues de la primera repeticion, salta la parte 1 (PART 1), y vete a 
parte 2 (PART 2) y termina la cancion.

Legenda de Tablatura
--------------------

b - Bending
/ - Slide desde abajo
\ - Slide desde arriba
~ - Vibrato

Comenten si les gusto =D
            
Submit corrections


        Oh Student And Teacher Affection lessons Hard to play? Try these video lessons and learn fast Oh Student And Teacher Affection lessons
        
↑ Back to top | Tablatures and chords for acoustic guitar and electric guitar, ukulele, drums are parodies/interpretations of the original songs. You may use it for private study, scholarship, research or language learning purposes only