Home » T » Torche »

Torche - Snakes Are Charmed Tabs

Artists:  A B C D E F G H I J K L M N O P Q R S T U V W X Y Z # 

Snakes Are Charmed Tabs

(ver. 1) Click to play this song!
Torche

Verse

e|----------------------------------------------------------13-----12--13------12--------------------|
B|----------12------15--12------15--13------15--13------15------13---------15------13--15--12--13----|
G|--12--12------12----------12----------12----------12-----------------------------------------------|
D|---------------------------------------------------------------------------------------------------|
A|---------------------------------------------------------------------------------------------------|
A|---------------------------------------------------------------------------------------------------|

Chorus (Chords)

e|----------------------------------------------------|
B|----------------------------------------------------|
G|----------------------------------------------------|
D|----------------------------------------------------|
A|---10---10---10---10---10---3---3---3---3---3---1---|
A|---10---10---10---10---10---3---3---3---3---3---1---|

Chorus (Lead)

e|--------------------12-----------------------------|
B|--15------------12------15---------------12--15----|
G|--------12--12---------------12--12--14------------|
D|---------------------------------------------------|
A|---------------------------------------------------|
A|---------------------------------------------------|

Bridge

e|----------------------------------------------------|
B|----------------------------------------------------|
G|----------------------------------------------------|
D|----------------------------------------------------|
A|---3--3----5--5----7--7----3--3----5---7---0--------|
A|---3--3----5--5----7--7----3--3----5---7---0--------|            
Submit corrections

↑ Back to top | Tablatures and chords for acoustic guitar and electric guitar, ukulele, drums are parodies/interpretations of the original songs. You may use it for private study, scholarship, research or language learning purposes only