» » »

Top Suzara - Way To Be Loved Tabs

Artists:  A B C D E F G H I J K L M N O P Q R S T U V W X Y Z # 

Way To Be Loved Tabs

(ver. 1) Click to play this song!
Top Suzara
 Rating:
4.4/5 (22 votes)

 Way To Be Loved  lessons Tabs too difficult? Try these video lessons and learn fast
 
                Intro:
e|-7----------9--9----7--7h9p7--------7--7--7h9------9--9---7----7--5-5--7-7-|
B|-7----------10-10---8---------------7--8-----------10-10--7----7--5-5--7-7-|
G|-8----------11-11---9--------7h9p7--7--9------7\9--11-11--8----8--6-6--8-8-|
D|-9----------11-11---9---------------7--9-----------11-11--9----9--7-7--9-9-|
A|-9-----7\9--9--9----7------------------7-----------9--9---9----9--7-7--9-9-|
E|-7-7h9----------------------------------------------------7----7--5-5--7-7-|

e|----------9--9----7--10h12-12-12p10--7-7--7h9------9--9---7--5--7--5-------|
B|----------10-10---8--10h12-12-12p10--8-8-----------10-10--7--5--7--5-------|
G|----------11-11---9------------------9-9------7\9--11-11--8--6--8--6-------|
D|----------11-11---9------------------9-9-----------11-11--9--7--9--7-------|
A|-----7\9--9--9----7------------------7-7-----------9--9---9--7--9--7-------|
E|-7h9------------------------------------------------------7--5--7--5-------|

Verse: 
e|-------9---7---------------------------------------------------------------|
B|-7--5--10--8---------------------------------------------------------------|
G|-8--6--11--9---------------------------------------------------------------|
D|-9--7----------------------------------------------------------------------|
A|---------------------------------------------------------------------------|
E|---------------------------------------------------------------------------|

Chorus:
e|-7----5----7----5----------------------------------------------------------|
B|-7----5----7----5----------------------------------------------------------|
G|-8----6----8----6----------------------------------------------------------|
D|-9----7----9----7----------------------------------------------------------|
A|-9----7----9----7----------------------------------------------------------|
E|-7----5----7----5----------------------------------------------------------|

Bridge:
e|-7----5----2----3----------------------------------------------------------|
B|-7----5----2----3----------------------------------------------------------|
G|-8----6----3----4----------------------------------------------------------|
D|-9----7----4----5----------------------------------------------------------|
A|-9----7----4----5----------------------------------------------------------|
E|-7----5----2----3----------------------------------------------------------|            
Submit corrections


        Way To Be Loved  lessons Hard to play? Try these video lessons and learn fast Way To Be Loved  lessons
        
↑ Back to top | Tablatures and chords for acoustic guitar and electric guitar, ukulele, drums are parodies/interpretations of the original songs. You may use it for private study, scholarship, research or language learning purposes only