» » »

Tool - Parabola Bass

Artists:  A B C D E F G H I J K L M N O P Q R S T U V W X Y Z # 

Parabola Bass

(ver. 1) Click to play this song!
Tool
 Rating:
4.3/5 (24 votes)


 Parabola lessons Tabs too difficult? Try these video lessons and learn fast
 
                [Intro]

G|-------------------------------------------------------------|
D|-0h2-22-3p2~-------------------------------------------------|
A|-------------------------------------------------------------|
D|-------------0-5p2-0~-00-0-----------------------------------|(x8)

[Verse]

G|-------------------------------------------------------------|
D|-0h2-22-3p2~-------------------------------------------------|
A|-------------------------------------------------------------|
D|-------------0-5p2-0~-00-0-----------------------------------|(x8)

[Pre chorus]

G|-------------------------------------------------------------|
D|-----------------------10-11-12------------------------------|
A|--------------7-7-77-7---------------------------------------|
D|-5-5-57-77-7-7------------------5-5-57-77-7-7-2-2-22-22-2----|


G|-------------------------------------------------------------|
D|-----------------------10-11-12------------------------------|
A|--------------7-7-77-7-----------------------3-3-------------|
D|-5-5-57-77-7-7------------------5-5-57-77-7------7-7-0-0-----|

G|-------------------------------------------------------------|
D|-------------------------------------------------------------|
A|-----------------------7-77-7-9------------------------------|
D|-0-2--0-2--0~-000-000-----------0-0-0-0----------------------|(x3)

[Chorus]

G|-------------------------------------------------------------|
D|-0h2-22-3p2~-------------------------------------------------|
A|-------------------------------------------------------------|
D|-------------0-5p2-0~-00-0-----------------------------------|

G|-------------------------------------------------------------|
D|-------------------------------------------------------------|
A|-----------------------7-77-7-9------------------------------|
D|-0-2--0-2--0~-000-000-----------0000(x3)---------------------|

[Alive!]

G|-------------------------------------------------------------|
D|-------------------------------------------------------------|
A|-------------------------------------------------------------|
D|-0h2~-2-5-2~-5-2~-00-0---------------------------------------|(x4)

[Solo]

G|-------------------------------------------------------------|
D|-------------------------------------------------------------|
A|-------------------------------------------------------------|
D|-0h2~-2-5-2~-5-2~-00-0---------------------------------------|(x4)

G|-------------------------------------------------------------|
D|-----------------------10-11-12------------------------------|
A|--------------7-7-77-7---------------------------------------|
D|-5-5-57-77-7-7------------------5-5-57-77-7-7-2-2-22-22-2----|


G|-------------------------------------------------------------|
D|-----------------------10-11-12------------------------------|
A|--------------7-7-77-7-----------------------3-3-------------|
D|-5-5-57-77-7-7------------------5-5-57-77-7------7-7-0-0-----|

[Chorus]

G|-------------------------------------------------------------|
D|-0h2-2-3-2~--------------------------------------------------|
A|-------------------------------------------------------------|
D|------------5-2-0~-00-0--------------------------------------|

G|-------------------------------------------------------------|
A|-----------------------7-77-7-9------------------------------|
A|-----------------------7-77-7-9------------------------------|
D|-0-2--0-2--0~-000-000-----------0000(x3)---------------------|

[Bass solo]

G|-------------------19----------------------------------------|
D|-17-16-19-16-17-16----16(x3)-17-16-19-16-17-16-17-16---------|
A|-------------------------------------------------------------|
D|-------------------------------------------------------------|

G|-------------------------------------------------------------|
D|-17-16-19--16h17-14-12-19-17--19-19-17\----------------------|
A|-------------------------------------------------------------|
D|-------------------------------------------------------------|(x4)

[Interlude]

G|------------------------------------------------------------|
D|------------------------------------------------------------|
A|------------------------------------------------------------|
D|-0-0-2-2xxxx-7-7-5-5-5--------------------------------------|(x4)

G|------------------------------------------------------------|
D|------------------------------------------------------------|
A|-7-----5----7-5---2-5---------------------------------------|
D|---7-5---0------5-------------------------------------------|(x4)

G|------------------------------------------------------------|
D|-2-0--------------2-0---------------------------------------|
A|------------------------------------------------------------|
D|-----5-4-2-0-0-0------5-4-2-0-2-7-5-------------------------|

G|------------------------------------------------------------|
D|-2-0--------------2-0---------------------------------------|
A|------------------------------------------------------------|
D|-----5-4-2-0-0-0------5-4-2-0-2-----------------------------|

[Bass lick]

G|------------------------------------------------------------|
D|-0h2-2-0h2-2-0h2-2-0h2-2------------------------------------|
A|------------------------------------------------------------|
D|-------------------------5-4--------------------------------|(x8)

[Last "chorus"]

G|------------------------------------------------------------|
D|------------------------------------------------------------|
A|------------------------------------------------------------|
D|-22222222-00000000------------------------------------------|(x6)

G|------------------------------------------------------------|
D|------------------------------------------------------------|
A|------------------------------------------------------------|
D|-2-5h7--0-5h7--5h7-5h7-0~-----------------------------------|

[Ending}

G|------------------------------------------------------------|
D|------------------------------------------------------------|
A|-----2~-----------------------------------------------------|
D|-0-0-----2~-------------------------------------------------|(x2)

G|-----------------------------------------------------------|
D|-----------------------------------------------------------|
A|-----2~----------------------------------------------------|
D|-0-0-------------------------------------------------------|            
Submit corrections



        Parabola lessons Hard to play? Try these video lessons and learn fast Parabola lessons
        
↑ Back to top | Tablatures and chords for acoustic guitar and electric guitar, ukulele, drums are parodies/interpretations of the original songs. You may use it for private study, scholarship, research or language learning purposes only