» » »

Tony Rice - Nine Pound Hammer Break Tabs

Artists:  A B C D E F G H I J K L M N O P Q R S T U V W X Y Z # 

Nine Pound Hammer Break Tabs

(ver. 1) Click to play this song!
Tony Rice
 Rating:
4/5 (4 votes)


 Nine Pound Hammer Break lessons Tabs too difficult? Try these video lessons and learn fast
 
                Tuning:normal
NOTE:SPACE BETWEEN TAB NOTES DO NOT HAVE ANYTHING TO DO WITH TIMING.

-------------------------------------------------------
-------------------1slide3--1--0--1--1slide3--1--0-----
-------------------2slide4--2--0--0--2slide4--2--0-----
-0--0--2--2slide5-----------------2--------------------
-------------------------------------------------------
-------------------------------------------------------


--------------------------------8--8bendstringup--6----
-------------------------------------------------------
-------------------------------------------------------
-2slide3--2--0--0--2--2slide5--------------------------
-------------------------------------------------------
-------------------------------------------------------


-------------------------------------------------------
-8--6--8---------------------------------1-------------
----------7--5--0---------------0--2--0--2hammer3------
----------------------0hammer2-------------------------
-------------------3-----------------------------------
-------------------------------------------------------


-------------------------------------------------------
-1----------------------------3--3--2pulloff1-----1----
-2hammer3--2--0--------------------------------3-------
-----------------2hammer3--0---------------------------
-------------------------------------------------------
-------------------------------------------------------


-------------------------------------------------------
-3--1--------------------------------------------------
-------3--0--------------------------------------------
-------------3--3slide5--------------------------------
-------------------------------------------------------
-------------------------------------------------------
            
Submit corrections



        Nine Pound Hammer Break lessons Hard to play? Try these video lessons and learn fast Nine Pound Hammer Break lessons
        
↑ Back to top | Tablatures and chords for acoustic guitar and electric guitar, ukulele, drums are parodies/interpretations of the original songs. You may use it for private study, scholarship, research or language learning purposes only