» » »

Tonic - Mean To Me Tabs

Artists:  A B C D E F G H I J K L M N O P Q R S T U V W X Y Z # 

Mean To Me Tabs

(ver. 1) Click to play this song!
Tonic
 Rating:
4/5 (4 votes)


 Mean To Me lessons Tabs too difficult? Try these video lessons and learn fast
 
                Tonic - "Mean To Me"
Tuning - Standard, but Capo I (First Fret)

Please rate this tab or comment to let others know how good this is.

On F#maj7 chord (left to right |133210|) use thumb on low E string

Intro/Verse - play 2x, with Light Chorus effect
 F|-0----0-0--3----3--0-|-0----0--0-0---0---0-0-|-0----0-0-0---0---0---|
 C|-1----1-0--3----3--0-|-1----1--1-1---1---1-1-|-1----1-1-1---1---0h1-|
Ab|-2----2-0--0----0--0-|-0----0--0-0---0---0-0-|-2----2-2-2---2---0h2-|
Eb|-2----2-0--0----0--0-|-2----2--2-2---0h2-2-2-|-2----2-2-2---2-------|
Bb|-0----0-0--2----2--0-|-3----3--3-3---3---3-3-|-0----0-0-0---0-------|
 F|-----------3----3----|-----------------------|----------------------|

|-0----0--0-0---0---0-0-|-0----0--0-0---0---0-0-|-0----0--0----0---0-0-|
|-1----1--1-1---1---1-1-|-1----1--1-1---1---0-0-|-1----1--1----1---0-0-|
|-2----2--2-2---2---2-2-|-2----2--2-2---2---0-0-|-2----2--2----2---0-0-|
|-3----3--3-3---3---3-3-|-3----3--3-3---3---0-0-|-2----2--2----2---0-0-|
|-3----3--3-3---3---3-3-|-3----3--3-3---3---0-0-|-0----0--0----0---0-0-|
|-1----1--1-1---1---1-1-|-1----1--1-1---1-------|----------------------|

                         Ending 1              Ending 2
|-3---3---3---3-3---3-3-|-3-------------|      -0----0--0-0---|
|-0---0---0---0-0---1-1-|-0-------------|      -1----1--1-1---|
|-0---0---0---0-0---0-0-|-0-------------|      -2----2--2-2---|
|-0---0---0---0-0---0-0-|-0-------------|      -3----3--3-3---| 
|-2---2---2---2-2-------|-2-------------|      -3----3--3-3---|
|-3---3---3---3-3-------|-3-------------|      -1----1--1-1---|


  Electric 2 (on Elec. 1 repeat, 0:27) - Let all notes ring 
 F|-3--------3--------|-0-----------0---------|-3----------------|----------3--1---|
 C|--5-------3--------|-1---------3-----1---1-|-5----------------|--------1--------|
Ab|----------4--------|-0-------------0---0---|-5----------------|------2----------|
Eb|----------5--------|-2---------------------|------------------|----3------------|
Bb|-------------------|-3---------------------|------------------|-----------------|
 F|-------------------|-----------------------|------------------|-----------------|

|-------------------|-3--------------|-3------------|-------3-----------------|
|-------------------|-1--------------|-3------------|-----1-------------------|
|-rest--------------|-2--------------|-0------------|---2---------------------|
|-------------------|-2--------------|-0------------|-3---------------------0-|
|-------------------|----------------|--------------|-----------------0-2-3---|
|-------------------|----------------|--------------|-----------0-1-3---------|
                                                                * Distortion on!

Chorus
   Electric 1 (no Dist)
 F|-0----0--0-0----0--0-0-|-0----0--0-0--0-0-0-0-0-0--|
 C|-1----1--1-1----1--1-1-|-1----1--1-1--1-1-1-1-1-1--|
Ab|-0----0--0-0----0--0-0-|-2----2--2-2--2-2-2-2-2-2--|
Eb|-2----2--2-2----2--2-2-|-2----2--2-2--3-3-3-3-3-3--|
Bb|-3----3--3-3----3--3-3-|-0----0--0-0--3-3-3-3-3-3--|
 F|-----------------------|--------------1-1-1-1-1-1--|
  |  
  |Electric 2 - Heavy Dist
 F|-----------------------|---------------------------|
 C|-----------------------|---------------------------|
Ab|-5---------------------|-2-------------------------|
Eb|-5---------------------|-2------------3-3--3-------|
Bb|-3---------------------|-0------------3-3--3-------|
 F|-3---------------------|--------------1-1--1-------|


   Electric 1 
 F|-0----0--0-0----0--0-0-|-0----0--0-0--0-0-0-0-0-0--|
 C|-1----1--1-1----1--1-1-|-1----1--1-1--1-1-1-1-1-1--|
Ab|-0----0--0-0----0--0-0-|-2----2--2-2--2-2-2-2-2-2--|
Eb|-2----2--2-2----2--2-2-|-2----2--2-2--3-3-3-3-3-3--|
Bb|-3----3--3-3----3--3-3-|-0----0--0-0--3-3-3-3-3-3--|
 F|-----------------------|--------------1-1-1-1-1-1--|
  |  
  |Electric 2
 F|-----------------------|----------------------------|
 C|-----------------------|----------------------------|
Ab|-5---------------------|-2--------------------------|
Eb|-5---------------------|-2------------------------0-|
Bb|-3---------------------|-0------------------0-2-3---|
 F|-3---------------------|--------------0-1-3---------|

   Electric 1
 F|-0----0--0-0----0--0-0-|-0----0--0-0--0-0-0-0-0-0--|
 C|-1----1--1-1----1--1-1-|-1----1--1-1--1-1-1-1-1-1--|
Ab|-0----0--0-0----0--0-0-|-2----2--2-2--2-2-2-2-2-2--|
Eb|-2----2--2-2----2--2-2-|-2----2--2-2--3-3-3-3-3-3--|
Bb|-3----3--3-3----3--3-3-|-0----0--0-0--3-3-3-3-3-3--|
 F|-----------------------|--------------1-1-1-1-1-1--|
  |  
  |Electric 2 - Heavy Dist
 F|-----------------------|---------------------------|
 C|-----------------------|---------------------------|
Ab|-5---------------------|-2-------------------------|
Eb|-5---------------------|-2------------3-3--3-------|
Bb|-3---------------------|-0------------3-3--3-------|
 F|-3---------------------|--------------1-1--1-------|


   Electric 1              6/4 (6 beats in this bar)
 F|-0----0--0-0----0--0-0-|-0----0--0-0--3------------|
 C|-1----1--1-1----1--1-1-|-1----1--1-1--0------------|
Ab|-0----0--0-0----0--0-0-|-2----2--2-2--0------------|
Eb|-2----2--2-2----2--2-2-|-2----2--2-2--0------------|
Bb|-3----3--3-3----3--3-3-|-0----0--0-0--2------------|
 F|-----------------------|--------------3------------|
  |  
  |Electric 2 - Heavy Dist
  |                        6/4
 F|-----------------------|---------------------------|
 C|-----------------------|---------------------------|
Ab|-5---------------------|-2-------------------------|
Eb|-5---------------------|-2------------5------------|
Bb|-3---------------------|-0------------5------------|
 F|-3---------------------|--------------3------------|



Play Verse Again, but Electric 2 plays:
 F|-3----3-----3----3-3-|---------------3----------|-3------------3---|
 C|--5-----5---3--------|-5----5----3h5--------5---|-5--------5-----5-|
Ab|------------4--------|-5------5--------5--5---5-|-5----------5-----|
Eb|---------------------|-5------------------------|------------------|
Bb|---------------------|--------------------------|------------------|
 F|---------------------|--------------------------|------------------|

|-------3-1------0h1-|----3-------3----|--------3-------|-3------3---3-|
|-----1--------1-----|------6---6---6--|------5---------|-3------------|
|---2----------------|--------5--------|----------------|-0------------|
|--------------------|-----------------|----------------|-0------------|
|--------------------|-----------------|----------------|--------------|
|--------------------|-----------------|----------------|--------------|

            * Distortion on!
|--------3----------------|
|------1------------------|
|-------------------------|
|----3------------------0-|
|-----------------0-2-3---|
|-----------0-1-3---------|

Play Chorus again


Solo- Guitar 3 (Chorus is played by Guitar 1 & 2 during solo)
 F|-------------------|--------------------------|-----------------------|
 C|--------------5----|--------------------------|--------------8--------|
Ab|-7b9r7b9r7b9--7b9--|-7b9r7p5--------------5---|--7b9r7b9r7b9__--9r7p5-|
Eb|-------------------|---------7~-----7-5h7-----|-----------------------|
Bb|-------------------|--------------------------|-----------------------|
 F|-------------------|--------------------------|-----------------------|

|----------------------------|----------------------|---------------------------|
|-8b10~------5b6r5-----------|----------------------|---------------------------|
|------------------5---------|----7b9r7b9r7b9--7b9--|-7b9____r7p5-------------5-|
|--------------------5-------|----------------------|-------------7-----7-5h7---|
|----------------------8-7-8-|-7--------------------|---------------------------|
|----------------------------|----------------------|---------------------------|

|-----------------|--------------------------|
|-------------8---|-8b10~--------8-----------|
|-7b9r7b9r7b9___--|--------------------------|
|-----------------|--------------------------|
|-----------------|--------------------------|
|-----------------|--------------------------|

Play Verse Again on Electric 1

Play Chorus again 2x to end song, but Electric 2 part changes to:

   play 4x
 F|-----------------------|---------------------------|
 C|-----------------------|---------------------------|
Ab|-5---------------------|-2-------------------------|
Eb|-5---------------------|-2------------3-3--3-------|
Bb|-3---------------------|-0------------3-3--3-------|
 F|-3---------------------|--------------1-1--1-------| 

 F|-----------------------|----------------------------|
 C|-----------------------|----------------------------|
Ab|-5---------------------|-2--------------------------|
Eb|-5---------------------|-2------------------------0-|
Bb|-3---------------------|-0------------------0-2-3---|
 F|-3---------------------|--------------0-1-3---------|



Key:
/ or \  slide
h       hammer-on
p       pull-off
b       bend
r       release
__      hold note while plucking next string
()      hold note into next bar
            
Submit corrections



        Mean To Me lessons Hard to play? Try these video lessons and learn fast Mean To Me lessons
        
↑ Back to top | Tablatures and chords for acoustic guitar and electric guitar, ukulele, drums are parodies/interpretations of the original songs. You may use it for private study, scholarship, research or language learning purposes only