» » »

Tommy Tutone - Jenny 867-5309 Bass

Artists:  A B C D E F G H I J K L M N O P Q R S T U V W X Y Z # 

Jenny 867-5309 Bass

(ver. 1) Click to play this song!
Tommy Tutone
 Rating:
4.2/5 (20 votes)

 Jenny 867-5309  lessons Tabs too difficult? Try these video lessons and learn fast
 
                Tuning: STANDARD



INTRO/VERSE:

G|---------------------------------------------------------------------------|
D|---------------------------------------------------------------------------|
A|-----5-5---0-0---2-2---4------5-5---0-0---2-2-4-2-0------------------------|  
E|-2------------------------2------------------------------------------------|
  {------SECTION 1--------}{------SECTION 2----------}

PRE CHORUS:

G|---------------------------------------------------------------------------|
D|-----------0~-----------------------------------------------0--------------|
A|---------2----4~-0~-2~----------2-0~--4h5p4-2h4-----------2---4~-0~-2~-----|
E|-0-0~--4----------------0-0~--4-------------------0-0~--4------------------|

CHORUS: JUST FLIP FLOP SECTION 1 AND 2

REPEAT VERSE

REPEAT PRE CHORUS

BRIDGE:

G|---------------------------------------------------------------------------|
D|---------------------------------------------------------------------------|
A|-44444444-----------------------------44444444-----------------------------|
E|----------00000000-22222222-5555-7777----------00000000-22222222-5555-7777-|

CHORUS: X2

THEN THERES THAT LITTLE PART WHERE HE PLAYS HIGH 
G|--------------------|
D|-4~~-----7~~-9~~----|
A|-----5~~------------| X2
E|--------------------|

CHORUS TILL THE END OF THE SONG
            
Submit corrections


        Jenny 867-5309  lessons Hard to play? Try these video lessons and learn fast Jenny 867-5309  lessons
        
↑ Back to top | Tablatures and chords for acoustic guitar and electric guitar, ukulele, drums are parodies/interpretations of the original songs. You may use it for private study, scholarship, research or language learning purposes only