» » »

Tommy Tutone - 867-5309 Jenny Bass

Artists:  A B C D E F G H I J K L M N O P Q R S T U V W X Y Z # 

867-5309 Jenny Bass

(ver. 1) Click to play this song!
Tommy Tutone
 Rating:
4/5 (7 votes)

 867-5309 Jenny lessons Tabs too difficult? Try these video lessons and learn fast
 
                This song is pretty straight forward. Apart from the Bridge, Middle 8 and Guitar 
Solo the bass line is the same.


  Intro:
G|----------------------|-------------------------|
D|----------------------|-------------------------|
A|----6-6---------------|----6-6------------5-----|
E|-3-------6--6--6-8--6-|-3-------6--6--6-8---6-3-|


  Verse
G|----------------------|-------------------------|
D|----------------------|-------------------------|
A|----6-6---------------|----6-6------------5-----|
E|-3-------6--6--6-8--6-|-3-------6--6--6-8---6-3-|


  Verse
G|----------------------|-------------------------|
D|----------------------|-------------------------|
A|----6-6---------------|----6-6------------5-----|
E|-3-------6--6--6-8--6-|-3-------6--6--6-8---6-3-|


  Verse
G|----------------------|-------------------------|
D|----------------------|-------------------------|
A|----6-6---------------|----6-6------------5-----|
E|-3-------6--6--6-8--6-|-3-------6--6--6-8---6-3-|


  Verse
G|----------------------|-------------------------|
D|----------------------|-------------------------|
A|----6-6---------------|----6-6------------5-----|
E|-3-------6--6--6-8--6-|-3-------6--6--6-8---6-3-|


  Bridge
G|-----------------|---------------------|-------------------|
D|-----------------|---------------------|-------------------|
A|-8-8-8-8-8-8-8-8-|-8-8-8-8-----5-6-5---|-8-8-8---5-6-5-----|
E|-----------------|---------6-6-------6-|-------6-------6-8-|


  Chorus
G|----------------------|-------------------------|
D|----------------------|-------------------------|
A|----6-6---------------|----6-6------------5-----|
E|-3-------6--6--6-8--6-|-3-------6--6--6-8---6-3-|



  Chorus
G|----------------------|-------------------------|
D|----------------------|-------------------------|
A|----6-6---------------|----6-6------------5-----|
E|-3-------6--6--6-8--6-|-3-------6--6--6-8---6-3-|



  Verse
G|----------------------|-------------------------|
D|----------------------|-------------------------|
A|----6-6---------------|----6-6------------5-----|
E|-3-------6--6--6-8--6-|-3-------6--6--6-8---6-3-|


  Verse
G|----------------------|-------------------------|
D|----------------------|-------------------------|
A|----6-6---------------|----6-6------------5-----|
E|-3-------6--6--6-8--6-|-3-------6--6--6-8---6-3-|


  Verse
G|----------------------|-------------------------|
D|----------------------|-------------------------|
A|----6-6---------------|----6-6------------5-----|
E|-3-------6--6--6-8--6-|-3-------6--6--6-8---6-3-|


  Verse
G|----------------------|-------------------------|
D|----------------------|-------------------------|
A|----6-6---------------|----6-6------------5-----|
E|-3-------6--6--6-8--6-|-3-------6--6--6-8---6-3-|


  Bridge
G|-----------------|---------------------|-------------------|
D|-----------------|---------------------|-------------------|
A|-8-8-8-8-8-8-8-8-|-8-8-8-8-----5-6-5---|-8-8-8---5-6-5-----|
E|-----------------|---------6-6-------6-|-------6-------6-8-|



Chorus
G|----------------------|-------------------------|
D|----------------------|-------------------------|
A|----6-6---------------|----6-6------------5-----|
E|-3-------6--6--6-8--6-|-3-------6--6--6-8---6-3-|



  Chorus
G|----------------------|-------------------------|
D|----------------------|-------------------------|
A|----6-6---------------|----6-6------------5-----|
E|-3-------6--6--6-8--6-|-3-------6--6--6-8---6-3-|


  Middle 8
G|---------------------------------------|
D|--------3------------------------------|
A|-5-5-5----5--------------------1-1-3-3-|
E|-------------1-1-1-1--3-3-3-3----------|



G|---------------------------------------|
D|--------3------------------------------|
A|-5-5-5----5--------------------1-1-3-3-|
E|-------------1-1-1-1--3-3-3-3----------|



G|--------|-------------|-----------------------|
D|--------|-5-----8--10-|-5-----8-10-8-7-8-7----|
A|------6-|----6--------|----6---------------10-|
E|-3------|-------------|-----------------------|


 The song fades out playing the chorus part behind the rest 
 of the guitar solo.
            
Submit corrections


        867-5309 Jenny lessons Hard to play? Try these video lessons and learn fast 867-5309 Jenny lessons
        
↑ Back to top | Tablatures and chords for acoustic guitar and electric guitar, ukulele, drums are parodies/interpretations of the original songs. You may use it for private study, scholarship, research or language learning purposes only