» » »

Tommy Roe - Sheila Bass

Artists:  A B C D E F G H I J K L M N O P Q R S T U V W X Y Z # 

Sheila Bass

(ver. 1) Click to play this song!
Tommy Roe
 Rating:
2.2/5 (29 votes)

 Sheila lessons Tabs too difficult? Try these video lessons and learn fast
 
                Intro:
G|-----------------|------------------------
D|-DRUM ROLL START-|------------------------
A|-----2 BARS------|------------------------
E|-----------------|-5-5-3-5-5-3-5-00000000-

Verse 1: 
G|-------------------------------------------------------------------------
D|-------------------------------------------------------------------------
A|----------5-5--7-7-----5-5--------------------5-5--7-7-----5-5-----------
E|-5-5--0-0----------5-5-----5-5--0-0--5-5--0-0----------5-5----5-00000000-

Verse 2: 
G|-----------------------------------------------------------------------
D|-----------------------------------------------------------------------
A|----------5-5--7-7-----5-5--------------------5-5--7-7-----5-5---------
E|-5-5--0-0----------5-5-----5-5--0-0--5-5--0-0----------5-5-----5-5-5-5-

Bridge:                  (Play This x2)
G|------------------------------------
D|------------------------------------
A|-7-7-7-7--7-7-7-6-5-5-5-5---0-0-0-0-
E|------------------------------------

Verse 3: 
G|-------------------------------------------------------------------------
D|-------------------------------------------------------------------------
A|----------5-5--7-7-----5-5--------------------5-5--7-7-----5-5-----------
E|-5-5--0-0----------5-5-----5-5--0-0--5-5--0-0----------5-5----5-00000000-

Repeat Intro:

Repeat Verse 2:

Repeat Bridge:

Repeat Verse 3:

Outro:               (Repeat To Fade/End)
G|---------------------------------------
D|---------------------------------------
A|-----5-5-----------------5-5-----------
E|-5-5----5-00000000---5-5----5-00000000-

            
Submit corrections


        Sheila lessons Hard to play? Try these video lessons and learn fast Sheila lessons
        
↑ Back to top | Tablatures and chords for acoustic guitar and electric guitar, ukulele, drums are parodies/interpretations of the original songs. You may use it for private study, scholarship, research or language learning purposes only