Home » T » Tommy Lee »

Tommy Lee - Tryin To Be Me Tabs

Artists:  A B C D E F G H I J K L M N O P Q R S T U V W X Y Z # 

Tryin To Be Me Tabs

(ver. 1) Click to play this song!
Tommy Lee
Artist : Tommy Lee
Song   : Tryin To Be Me
Album  : Tommyland:The Ride
Tuning : Drop D 1/2 step down


I'm surprised that there are no other tabs for this song.
Am I the only one who likes it? lol

Intro (x1)
Eb|----------------------------------------------------------------|
Bb|----------------------------------------------------------------|
Gb|----------------------7-7-7--------------------------7-7-7--9---|
Db|-7--9-9--7--9--x-x-x--7-7-7--7--0--2-2--0--2--x-x-x--7-7-7--9---|
Ab|-7--9-9--7--9--x-x-x--5-5-5--7--0--2-2--0--2--x-x-x--5-5-5--7---|
Db|-7--9-9--7--9--x-x-x---------7--0--2-2--0--2--x-x-x-------------|


Verse (x2)
Eb|------------------------------|
Bb|------------------------------|
Gb|------------------------------|
Db|-7--9-9--7--9----0--2-2--0--2-|
Ab|-7--9-9--7--9----0--2-2--0--2-|
Db|-7--9-9--7--9----0--2-2--0--2-|


Eb|-----------------------------------------------------------------|(x2)
Bb|-----------------------------------------------------------------|
Gb|----------------------7-7-7--------------------------7-7-7--9-9--|
Db|-7--9-9--7--9--x-x-x--7-7-7--7--0--2-2--0--2--x-x-x--7-7-7--9-9--|
Ab|-7--9-9--7--9--x-x-x--5-5-5--7--0--2-2--0--2--x-x-x--5-5-5--7-7--|
Db|-7--9-9--7--9--x-x-x---------7--0--2-2--0--2--x-x-x--------------|

Pre-chorus (x1)
Eb|----------------------------------------|
Bb|----------------------------------------|
Gb|----------------------------------------|
Db|-0--2-2--0--2--x-x--x-x-x--0--2-2--0--2-|
Ab|-0--2-2--0--2--x-x--x-x-x--0--2-2--0--2-|
Db|-0--2-2--0--2--x-x--x-x-x--0--2-2--0--2-|

Chorus (x2)
Eb|--------------------------------------------------------------------|
Bb|--------------------------------------------------------------------|
Gb|-4-4-4-4-4-------------------------2-2-2-2-2------------------------|
Db|-4-4-4-4-4-----2--0-0-0-0-0--------2-2-2-2-2--------2-2-2-2-2--0-0--|
Ab|-2-2-2-2-2--4-----0-0-0-0-0--------0-0-0-0-0--------2-2-2-2-2--0-0--|
Db|------------------0-0-0-0-0--2--4-------------4--2--2-2-2-2-2--0-0--|


Eb|----------------------------------------|
Bb|----------------------------------------|
Gb|----------------------------------------|
Db|-0--2-2--0--2--x-x--x-x-x--0--2-2--0--2-|
Ab|-0--2-2--0--2--x-x--x-x-x--0--2-2--0--2-|
Db|-0--2-2--0--2--x-x--x-x-x--0--2-2--0--2-|

Repeat verse and chorus

Bridge
Eb|---------------------------------------|
Bb|---------------------------------------|
Gb|-4--2--4--7--9-11----4--2--4--7--9--7--|
Db|-x--x--x--x--x--x----x--x--x--x--x--x--|
Ab|-2--0--2--5--7--9----2--0--2--5--7--5--|
Db|---------------------------------------|

Eb|-------------------------------------|
Bb|-------------------------------------|
Gb|-4--2--4--7--9-11---7--6--9-11---4---|
Db|-x--x--x--x--x--x---x--x--x--x---x---|
Ab|-2--0--2--5--7--9---5--4--7--9---2---|
Db|-------------------------------------|
            
Submit corrections

↑ Back to top | Tablatures and chords for acoustic guitar and electric guitar, ukulele, drums are parodies/interpretations of the original songs. You may use it for private study, scholarship, research or language learning purposes only