Home » T » Tommy Emmanuel »

Tommy Emmanuel - Classical Gas Tabs

Artists:  A B C D E F G H I J K L M N O P Q R S T U V W X Y Z # 

Classical Gas Tabs

(ver. 2) Click to play this song!
Tommy Emmanuel
[Intro]
 
e|---------------------------------------------------------------------------------------------------|
B|-1p0---0--1--0-----------------0---------0---------------1p0---0--1--0-----------------0---------0-|
G|-----2-------------0-----0-------2-0-2-----2---0h2---0h2-----2-------------0-----0-------2-0-2-----|
D|-----------------0-----0-----2-----------------0h2---0h2-----------------0-----0-----2-------------|
A|---------------------------------------------0-----0-----------------------------------------------|
E|---------------3-----2-----0-----------0-------------------------------3-----2-----0-----------0---|
 
e|-------0--1--2--3--4--5-7-|
B|-1--3--1--1--3--0--5--4-6-|
G|-2--0--0--2--2--0--4--5-7-|
D|-2--0-----3--0--------4-6-|
A|-0--2--3------------------|
E|----------------3--0------|
 
 
[Chorus]
 
e|-8-7-5-----5-------------------|
B|-5-----8-------7---------------|
G|-5-----5-------7---------------|
D|-------------------------------|
A|-0-0-0-0-0-0-0-0-0-0-0-0-0-0-0-|
E|-------------------------------|
 
e|-8-7-5-----5---------------(12)--------|
B|-5-----8-------7---(7)-----(12)----(7)-|
G|-5-----5-------7---(7)-------------(7)-|
D|---------------------------------------|
A|-0-0-0-0-0-0-0-0-0--0---0----0--0-0-0--|
E|---------------------------------|
 
e|-8-7-5-----5-----------------|
B|-------8-------7---7---7---7-|
G|---------------5---5---5---5-|
D|-------------0---0---0---0---|
A|-0-0-0-0-0-0-----------------|
E|-----------------------------|
 
 
[Chorus]
 
e|-------3---0---1-----^-0-0-----0-----0-----0-----^-0-0-----0-----0-----0-----|
B|-------0---1---1---3-|-3---3-----3-----3-----3---|-3---3-----3-----3-----3---|
G|-------0---0---2---3-|-2-----2-----2-----2-----2-|-1-----1-----1-----1-----1-|
D|-------------3-------|-3-------------------------|-2-------------------------|
A|---------3-------1---|-2-------------------------|---------------------------|
E|-0-2-3-------------------------------------------|-0-------------------------|
 
 
 
[Bridge]
 
e|---0------0-1--1-0---0-0-----0-1-1-|
B|---1----1---1--1-1---1-----1---1-1-|
G|---0-0------2--2-0---0---0-----1-1-|
D|------------3----------------------|
A|-3---------------3---3-------------|
E|-----------------------------------|
 
e|--3-----4-----5-----6-----7-----8-----9-----10-------|
B|--4-----4-----6-----6-----8-----8-----10----10-------|
G|--3-----5-----5-----7-----7-----9-----9-----11-------|
D|-----------------------------------------------------|
A|-----------------------------------------------------|
E|--3-3-3-4-4-4-5-5-5-6-6-6-7-7-7-8-8-8-9-9-9-10-10-10-| Play Bass W/ Thumb
 
e|-12----------------------12-------12----12-12-------------------12-------12----12-|
B|-9-----------------------9--------9-----9--10-------------------10-------10----10-|
G|-9-----------------------9--------9-----9--10-------------------10-------10----10-|
D|----------------------------------------------------------------------------------|
A|----------------------------------------------------------------------------------|
E|-0--0--0--0--0--0--0--0--0--0--0--0--0--0--0--0--0--0--0--0--0--0--0--0--0--0--0--|
 
e|-12----------------------12-------12----12-12-------12----12-|
B|-11----------------------11-------11----11-13-------13----13-|
G|-11----------------------11-------11----11-12-------12----12-|
D|-------------------------------------------------------------|
A|-------------------------------------------------------------|
E|-0--0--0--0--0--0--0--0--0--0--0--0--0--0--0--0--0--0--0--0--|
 
 
[Then Play Either Below]
 
e|-x--------------------------------------------------------------------------|Percusion of choice
B|-x--------------------------------------------------------------------------|
G|-x--------------------------------------------------------------------------|
D|-x--------------------------------------------------------------------------|
A|-x--------------------------------------------------------------------------|
E|-x--------------------------------------------------------------------------|
 
e|-(5)--------------------------------------------------------------------------|Play harmonic and bend neck
B|-(5)--------------------------------------------------------------------------|away from self to lower pitch
G|-(5)--------------------------------------------------------------------------|
D|-(5)--------------------------------------------------------------------------|
A|-(5)--------------------------------------------------------------------------|
E|-(5)--------------------------------------------------------------------------|
After this you can go to intro
 
[Thumb]
Intro Set                              Main
e|-----------------------------------||-----------------------------|| This part goes Intro Set, Main
B|-----------------------------------||-9-9-7-----9-9-7-----9-9-9-7-|| Lower Main, Main, Complication
G|-----------------------------------||-9-9-8-----9-9-8-----9-9-9-8-|| Main then End
D|-----------------------------------||-9-9-9-----9-9-9-----9-9-9-9-||
A|-----------------------------------||-----------------------------||
E|-1/7-7-7-7-7-7-7-7-7-7-7-7-7-7-7-7-||-7-7-7-7-7-7-7-7-7-7-7-7-7-7-||
  Lower Main                       Complication               End
e|-------------------------------||-------------------------||------------|
B|-7-7-5-----7---5---------------||-7-7-5-----5--5--5--5--7-||-3--3--1--0-|
G|-7-7-6-----7---6---------------||-7-7-6-----4--6--4--6--6-||-4--4--2--0-|
D|-7-7-7-----7---7---------------||-7-7-7-----6--7--6--7--8-||-5--5--3--3-|
A|-------------------------------||-------------------------||------------|
E|-7-7-7-7-7-7-7-7-7-7-7-7-7-7-7-||-7-7-7-7-7-4--5--4--5--6-||-5--5--3--3-|
 
e|---0-----0-----0-----0-----0-0-----0-------0-----0-----| Then play bridge and after [Play Either Below]
B|-3---3-----3-----3-----3---3---3-----3-------3-----3---| Go back to intro with outro
G|-1-----2-----2-----2-----2-2-----2-----2-------2-----2-| before first strum of chorus
D|-2-------------------------3---------------------------|
A|---------------------------2---------------------------|
E|-0---------------------------------------3-------------|
 
 
[Outro]
 
e|-^-0-0-----0-----0-----0-----^-0-0-----0-------0-----0-----|
B|-|-3---3-----3-----3-----3---|-3---3-----3-------3-----3---|
G|-|-2-----2-----2-----2-----2-|-1-----1-----1-------1-----1-|
D|-|-3-------------------------|-2---------------------------|
A|-|-2-------------------------|-----------------------------| the 4 is optional, if you can't play
E|-|---------------------------|-0-------------4-------------| it easily, don't
 
e|-----2-----------2-----------3-----------3-----------4---------------4-----------| play through twice
B|---4---4---4---4---4---4---4---4---4---4---4---4---4---4---4---4---4---4---4---4-| second time faster
G|---------2---2-------2---3-------3---3-------3---4-------4---4---4-------4---4---| or change the fingering
D|---------------------------------------------------------------------------------|
A|-0-------------------------------------------------------------------------------|
E|---------------------------------------------------------------------------------|
 
e|-0-3-1-3--0--0-0-0-3-0--0-0-0-|
B|-1-0-1-0--1--1-1-1-0-1--1-1-1-|
G|-2-0-0-0--2--2-2-2-0-2--2-2-2-|
D|-2-0-3-0--2--2-2-2-0-2--2-2-2-|
A|-0---3----0--0-0-0---0--0-0-0-|
E|---3---3-----------3----------|
            
Submit corrections

↑ Back to top | Tablatures and chords for acoustic guitar and electric guitar, ukulele, drums are parodies/interpretations of the original songs. You may use it for private study, scholarship, research or language learning purposes only