Home » T » Tom Jones »

Tom Jones - Its Not Unusual Bass

Artists:  A B C D E F G H I J K L M N O P Q R S T U V W X Y Z # 

Its Not Unusual Bass

(ver. 1) Click to play this song!
Tom Jones
Intro:         (Play This x2)
G|---------------------------
D|---------------------------
A|-3-33---3-33---5-55---5-55-
E|---------------------------

Verse:
G|----------------------------------------------------------------------
D|----------------------------------------------------------------------
A|-3-33--3-33--5-55------3-33--3-33--5-55--5-55--7-77--7-77--5-55--5-55-
E|------------------3-33------------------------------------------------

Chorus:
G|--------------------------------------
D|--------------------------------------
A|--------------3-33---3-33---5-55------
E|-3-33---3-33---------------------3-33-

Repeat Verse:

Bridge:
G|------------------------------------------------------------5-55
D|----------------------------------------------------------------
A|--------------3-33---3-33---5-55---5-55-----------0-2-3-33------
E|-3-33---3-33----------------------------3-33---3-3--------------

G|---------------------------------------------------------------
D|---------------------------------------------------------------
A|-3-33---3-33---5-55---5-55------5-55---7-77---7-77---5-55------
E|---------------------------3-33---------------------------3-33-

Instrumental Interlude:
G|---------------------------------------------
D|---------------------------------------------
A|-3-33--3-33--5-55------3-33--3-33--5-55------
E|------------------3-33------------------3-33-

Repeat Verse:

Outro:                                 (Repeat This Bit To Fade/End
G|--------------------------------|   |---------------------------
D|--------------------------------|   |---------------------------
A|-------------3-33---5-55---7-77-|   |-5-55---7-77---5-55---7-77-
E|-3-33---3-33--------------------|   |---------------------------


            
Submit corrections

↑ Back to top | Tablatures and chords for acoustic guitar and electric guitar, ukulele, drums are parodies/interpretations of the original songs. You may use it for private study, scholarship, research or language learning purposes only