Home » T » Tom Gabel »

Tom Gabel - Cowards Sing At Night Tabs

Artists:  A B C D E F G H I J K L M N O P Q R S T U V W X Y Z # 

Cowards Sing At Night Tabs

(ver. 3) Click to play this song!
Tom Gabel
-----------------------------------------------------------------------------
     Cowards Sing At Night - Tom Gabel
-----------------------------------------------------------------------------


Tuning: Standard

I believe this to be correct. Fingerings match up with what he plays in videos.
I'm just putting the chords in order they're used but it's up to you to figure out 
and amount to use.

(Notes in parenthesis are notes i believe he does not play but fit in the chord and make 
sound a little better)

Intro Progression:

e|-7-----7-------7-----7--------7--------------3----5------|
B|-7-----7-------7-----7--------7--------------3----5------|
G|-7-----7-------7-----7--------8--------------4----6------|
D|-7-----9-------7-----9--------9----4----4----5----7------|
A|-9-----10------9-----10-------9----5----5----5----7------|
E|-10----7(10)---10----7(10)----7----5----7----3----5------|


Verse:

e|-7-----7-------7-----7-------5----5----3----3--5-------|
B|-7-----7-------7-----7-------5----5----3----3--5-------|
G|-7-----7-------7-----7-------6----6----4----4--6-------|
D|-7-----9-------7-----9-------7----7----5----5--7-------|
A|-9-----10------9-----10------7----7----5----5--7-------|
E|-10----7(10)---10----7(10)---5----5----3----3--5-------|


Chorus:

e|-7----7------7----7------7----5----3----3--5-----------|
B|-7----7------7----7------7----5----3----3--5-----------|
G|-7----7------7----7------7----6----4----4--6-----------|
D|-7----9------7----9------7----7----5----5--7-----------|
A|-9----10-----9----10-----9----7----5----5--7-----------|
E|-10---7(10)--10---7(10)--10---5----3----3--5-----------|


Order of Play:

Intro progression
Verse
Chorus
Intro progression
Verse
Chorus
Outro (Single chords of the chorus, just don't play the last A)
            
Submit corrections

↑ Back to top | Tablatures and chords for acoustic guitar and electric guitar, ukulele, drums are parodies/interpretations of the original songs. You may use it for private study, scholarship, research or language learning purposes only