Home » T » Tom Gabel »

Tom Gabel - Amputations Tabs

Artists:  A B C D E F G H I J K L M N O P Q R S T U V W X Y Z # 

Amputations Tabs

(ver. 1) Click to play this song!
Tom Gabel
Album:Heart Burns

The number of times you strike each chord isn't exact but here's the main idea of 
the chords you play.
And if anyone want to know the chords here they are:
 
  C       C      C7      F       G      G       D      A     E
E|---| E|----| E|---| E|----| E|---| E|----| E|---| E|---| E|---|
B|---| B|----| B|---| B|----| B|---| B|----| B|---| B|---| B|---|
G|-5-| G|----| G|-3-| G|-10-| G|---| G|-12-| G|-7-| G|---| G|-9-|
D|-5-| D|-10-| D|-5-| D|-10-| D|-5-| D|-12-| D|-7-| D|-7-| D|-9-|
A|-3-| A|-10-| A|-3-| A|-8--| A|-5-| A|-10-| A|-5-| A|-7-| A|-7-|
E|---| E|-8--| E|---| E|----| E|-3-| E|----| E|---| E|-5-| E|---|

Intro/Verse:
E|---------------------------------|
B|---------------------------------|
G|-5-5-5-5-5-5-5-5-5-5-5-5-3-3-3-3-|
D|-5-5-5-5-5-5-5-5-5-5-5-5-5-5-5-5-| x5
A|-3-3-3-3-3-3-3-3-3-3-3-3-3-3-3-3-|
E|---------------------------------|

E|-------------------------------------------------|
B|-------------------------------------------------|
G|-10-10-----------5-5-5-5-5-5-5-5-5-5-5-5-5-5-5-5-|
D|-10-10-10-10-5-5-5-5-5-5-5-5-5-5-5-5-5-5-5-5-5-5-| x1
A|-8--8--10-10-5-5-3-3-3-3-3-3-3-3-3-3-3-3-3-3-3-3-|
E|-------8--8--3-3---------------------------------|

Chorus:
E|-------------------------------------------------------------------|
B|-------------------------------------------------------------------|
G|-------------------------10-10-------------------------------------| x1
D|-5-5-5-5-5-5-5-5-5-5-5-5-10-10-10-10-10-10-10-10-10-10-10-10-10-10-|
A|-5-5-5-5-5-5-5-5-5-5-5-5-8--8--10-10-10-10-10-10-10-10-10-10-10-10-|
E|-3-3-3-3-3-3-3-3-3-3-3-3-------8--8--8--8--8--8--8--8--8--8--8--8--|

E|-----------------------------------------------------------------|
B|-----------------------------------------------------------------|
G|-------------------------10-10-------7-7-------------------------| x1
D|-5-5-5-5-5-5-5-5-5-5-5-5-10-10-10-10-7-7-7-7-7-7-7-7-7-7-7-7-7-7-|
A|-5-5-5-5-5-5-5-5-5-5-5-5-8--8--10-10-5-5-7-7-7-7-7-7-7-7-7-7-7-7-|
E|-3-3-3-3-3-3-3-3-3-3-3-3-------8--8------5-5-5-5-5-5-5-5-5-5-5-5-|

E|-----------------|
B|-----------------|
G|-----------------|
D|-5-5-5-5-5-5-5-5-| x1
A|-5-5-5-5-5-5-5-5-|
E|-3-3-3-3-3-3-3-3-|

Verse:
E|---------------------------------|
B|---------------------------------|
G|-5-5-5-5-5-5-5-5-5-5-5-5-3-3-3-3-| 
D|-5-5-5-5-5-5-5-5-5-5-5-5-5-5-5-5-| x3
A|-3-3-3-3-3-3-3-3-3-3-3-3-3-3-3-3-|
E|---------------------------------|

E|-------------------------------------------------|
B|-------------------------------------------------|
G|-10-10-----------5-5-5-5-5-5-5-5-5-5-5-5-5-5-5-5-|
D|-10-10-10-10-5-5-5-5-5-5-5-5-5-5-5-5-5-5-5-5-5-5-|
A|-8--8--10-10-5-5-3-3-3-3-3-3-3-3-3-3-3-3-3-3-3-3-|
E|-------8--8--3-3---------------------------------|

Chorus:
E|-------------------------------------------------------------------|
B|-------------------------------------------------------------------|
G|-------------------------10-10-------------------------------------|
D|-5-5-5-5-5-5-5-5-5-5-5-5-10-10-10-10-10-10-10-10-10-10-10-10-10-10-|
A|-5-5-5-5-5-5-5-5-5-5-5-5-8--8--10-10-10-10-10-10-10-10-10-10-10-10-|
E|-3-3-3-3-3-3-3-3-3-3-3-3-------8--8--8--8--8--8--8--8--8--8--8--8--|

E|-----------------------------------------------------------------|
B|-----------------------------------------------------------------|
G|-------------------------10-10-------7-7-------------------------|
D|-5-5-5-5-5-5-5-5-5-5-5-5-10-10-10-10-7-7-7-7-7-7-7-7-7-7-7-7-7-7-|
A|-5-5-5-5-5-5-5-5-5-5-5-5-8--8--10-10-5-5-7-7-7-7-7-7-7-7-7-7-7-7-|
E|-3-3-3-3-3-3-3-3-3-3-3-3-------8--8------5-5-5-5-5-5-5-5-5-5-5-5-|

E|-----------------|
B|-----------------|
G|-----------------|
D|-5-5-5-5-5-5-5-5-|
A|-5-5-5-5-5-5-5-5-|
E|-3-3-3-3-3-3-3-3-|

E|---------------------------------|
B|---------------------------------|
G|-5-5-5-5-5-5-5-5-5-5-5-5---------|
D|-5-5-5-5-5-5-5-5-5-5-5-5-5-5-5-5-|
A|-3-3-3-3-3-3-3-3-3-3-3-3-5-5-5-5-|
E|-------------------------3-3-3-3-|

Bridge:
E|-------------------------------------------------|
B|-------------------------------------------------|
G|-------------------------------------------------|
D|-7-7-7-7-7-7-7-7-7-7-7-7-7-7-7-7-5-5-5-5-5-5-5-5-|
A|-7-7-7-7-7-7-7-7-7-7-7-7-7-7-7-7-5-5-5-5-5-5-5-5-|
E|-5-5-5-5-5-5-5-5-5-5-5-5-5-5-5-5-3-3-3-3-3-3-3-3-|

E|------------------------|
B|------------------------|
G|-5-5-5-5-5-5-5----------|
D|-5-5-5-5-5-5-5--5-5-5-5-|
A|-3-3-3-3-3-3-3--5-5-5-5-|
E|----------------3-3-3-3-|

E|-------------------------------------------------|
B|-------------------------------------------------|
G|-------------------------------------------------|
D|-7-7-7-7-7-7-7-7-7-7-7-7-7-7-7-7-5-5-5-5-5-5-5-5-|
A|-7-7-7-7-7-7-7-7-7-7-7-7-7-7-7-7-5-5-5-5-5-5-5-5-|
E|-5-5-5-5-5-5-5-5-5-5-5-5-5-5-5-5-3-3-3-3-3-3-3-3-|


E|------------------------|
B|------------------------|
G|-5-5-5-5-5-5-5----------|
D|-5-5-5-5-5-5-5--5-5-5-5-|
A|-3-3-3-3-3-3-3--5-5-5-5-|
E|----------------3-3-3-3-|

E|-------------------------------------------------|
B|-------------------------------------------------|
G|-------------------------------------------------|
D|-7-7-7-7-7-7-7-7-7-7-7-7-7-7-7-7-5-5-5-5-5-5-5-5-|
A|-7-7-7-7-7-7-7-7-7-7-7-7-7-7-7-7-5-5-5-5-5-5-5-5-|
E|-5-5-5-5-5-5-5-5-5-5-5-5-5-5-5-5-3-3-3-3-3-3-3-3-|

E|------------------------|
B|------------------------|
G|-5-5-5-5-5-5-5----------|
D|-5-5-5-5-5-5-5--5-5-5-5-|
A|-3-3-3-3-3-3-3--5-5-5-5-|
E|----------------3-3-3-3-|

Chorus/Outro:
E|-------------------------------------------|
B|-------------------------------------------|
G|-10-10-------------------------------------|
D|-10-10-10-10-10-10-10-10-10-10-10-10-10-10-|
A|-8--8--10-10-10-10-10-10-10-10-10-10-10-10-|
E|-------8--8--8--8--8--8--8--8--8--8--8--8--|

E|-------------------------------------------|
B|-------------------------------------------|
G|-10-10-------------------------------------|
D|-10-10-10-10-10-10-10-10-10-10-10-10-10-10-|
A|-8--8--10-10-10-10-10-10-10-10-10-10-10-10-|
E|-------8--8--8--8--8--8--8--8--8--8--8--8--|

E|---------------------------|
B|---------------------------|
G|-10-10-------12-12-7---9-7-|
D|-10-10-10-10-12-12-7-7-9-7-|
A|-8--8--10-10-10-10-5-7-7-5-|
E|-------8--8----------5-----|

E|-------------------------------------------------|
B|-------------------------------------------------|
G|-------------------------------------------------|
D|-7-7-7-7-7-7-7-7-7-7-7-7-7-7-7-7-5-5-5-5-5-5-5-5-|
A|-7-7-7-7-7-7-7-7-7-7-7-7-7-7-7-7-5-5-5-5-5-5-5-5-|
E|-5-5-5-5-5-5-5-5-5-5-5-5-5-5-5-5-3-3-3-3-3-3-3-3-|

End on:
E|-----|
B|-----|
G|-5---|
D|-5---|
A|-3---|
E|-----|
            
Submit corrections

↑ Back to top | Tablatures and chords for acoustic guitar and electric guitar, ukulele, drums are parodies/interpretations of the original songs. You may use it for private study, scholarship, research or language learning purposes only