» » »

Tomahawk - Rape This Day Tabs

Artists:  A B C D E F G H I J K L M N O P Q R S T U V W X Y Z # 

Rape This Day Tabs

(ver. 1) Click to play this song!
Tomahawk
 Rating:
4/5 (4 votes)

 Rape This Day lessons Tabs too difficult? Try these video lessons and learn fast
 
                TOMAHAWK
RAPE THIS DAY

4/4 time
Two guitars, both tuned EADGBE and heavily distorted
p = palm mute

INTRO and FIRST VERSE

Guitar 1 - Half time feel
G-|3---3-3---3-3---|3-3---3-3---4---|
D-|6-6-6-6-6-6-6-6-|6-6-6-6-6-6-5-5-|
   p p p p p p p p  p p p p p p p p 


SECOND VERSE

Guitar 1 - End half time feel
G-|3---3-3---3-3---|3-3---3-3---4---|
D-|6-6-6-6-6-6-6-6-|6-6-6-6-6-6-5-5-|
   p p p p p p p p  p p p p p p

G-|3---3-3-3-3-3-3-|3-3-3-3-3-3-4-4-|
D-|6---6-6-6-6-6-6-|6-6-6-6-6-6-5-5-|
       p p p p p p  p p p p p p

G-|3---3-3-3-3-3-3-|3-3-3-3-3-3-4-4-|
D-|x---x-x-x-x-x-x-|4-4-4-4-4-4-5-5-|
A-|6---6-6-6-6-6-6-|----------------|
       p p p p p p  p p p p p p


CHORUS

Guitar 1 repeats last two bars of second verse

Guitar 2 adds:
   Bb5                               Ebm/Bb           Gb5
G-|3-3-3-3-3-3-3-3-|3-3-3-3-3-3-3-3-|----------------|----------------|
D-|3-3-3-3-3-3-3-3-|3-3-3-3-3-3-3-3-|4-4-4-4-4-4-4-4-|4-4-4-4-4-4-4-4-|
A-|1-1-1-1-1-1-1-1-|1-1-1-1-1-1-1-1-|6-6-6-6-6-6-6-6-|4-4-4-4-4-4-4-4-|
E-|----------------|----------------|6-6-6-6-6-6-6-6-|2-2-2-2-2-2-2-2-|


At the end of the chorus, instead of playing the last measure, repeat the measure before it.

Enjoy
--Tjrd
            
Submit corrections


        Rape This Day lessons Hard to play? Try these video lessons and learn fast Rape This Day lessons
        
↑ Back to top | Tablatures and chords for acoustic guitar and electric guitar, ukulele, drums are parodies/interpretations of the original songs. You may use it for private study, scholarship, research or language learning purposes only