Home » T » Tokyo Police Club »

Tokyo Police Club - Simple Dude Bass

Artists:  A B C D E F G H I J K L M N O P Q R S T U V W X Y Z # 

Simple Dude Bass

(ver. 1) Click to play this song!
Tokyo Police Club
[Intro]
 
G|---------------------------------------------------------------------------|
D|---------------------------------------------------------------------------|
A|---------------------------------------------------------------------------|
E|---------------------------------------------------------------------------|
 
G|---------------------------------------------------------------------------|
D|---------------------------------------------------------------------------|
A|---------------------------------------------------------------------------|
E|---------------------------------------------------------------------------|
 
 
[Verse 1]
 
G|-------------------------------|
D|-------------------------------|
A|6-6-6-6-6-6-6-6-8-8-8-8-8-8-8-8|
E|-------------------------------|
 
 
[Chorus]
 
G|---------------------------------------------------------------------------------------------------------|
D|---------------------------------------------------------------------------------------------------------|
A|-------------------------------4-4-4-4-4-4-4-4-4-4-4-4-6-6-6-6-6-8-8-8-8-8-------------------------------|
E|4-4-4-4-4-4-4-4-4-4-4-4-4-4-4-4-------------------------------------------9-9-9-9-9-9-9-9-9-9-9-9-9-9-9-9|
 
 
[Verse 2]
 
G|--------------------------------------------------------------------------------------|
D|--------------------------------------------------------------------------------------|
A|-----------------------------4-4-4-4-4-4---------------------------------4-4-4-4-4-4-4|
E|1-1-0-1-4-4-4-4-4-4--1-1-0-1--------------1-1-0-1-4-4-4-4-4-4----1-1-0-1--------------|
 
G|--------------------------------------------------------------------------------------|
D|--------------------------------------------------------------------------------------|
A|-----------------------------4-4-4-4-4-4---------------------------------4-4-4-4-4-4-4|
E|1-1-0-1-4-4-4-4-4-4--1-1-0-1--------------1-1-0-1-4-4-4-4-4-4----1-1-0-1--------------|
 
G|--------------------------------------------------------------------------------------|
D|--------------------------------------------------------------------------------------|
A|-----------------------------4-4-4-4-4-4---------------------------------4-4-4-4-4-4-4|
E|1-1-0-1-4-4-4-4-4-4--1-1-0-1--------------1-1-0-1-4-4-4-4-4-4----1-1-0-1--------------|
 
G|--------------------------------------------------------------------------------------|
D|--------------------------------------------------------------------------------------|
A|-----------------------------4-4-4-4-4-4---------------------------------4-4-4-4-4-4-4|
E|1-1-0-1-4-4-4-4-4-4--1-1-0-1--------------1-1-0-1-4-4-4-4-4-4----1-1-0-1--------------|
 
G|--------------------------------------------------------------------------------------|
D|--------------------------------------------------------------------------------------|
A|-----------------------------4-4-4-4-4-4---------------------------------4-4-4-4-4-4-4|
E|1-1-0-1-4-4-4-4-4-4--1-1-0-1--------------1-1-0-1-4-4-4-4-4-4----1-1-0-1--------------|
 
G|---------------------------------------------------------------------------|
D|---------------------------------------------------------------------------|
A|6-6-6-6-6-6-6-6-8-8-8-8-8-8-8-8--------------------------------------------|
E|---------------------------------------------------------------------------|
 
 
[Chorus]
 
G|---------------------------------------------------------------------------------------------------------|
D|---------------------------------------------------------------------------------------------------------|
A|-------------------------------4-4-4-4-4-4-4-4-4-4-4-4-6-6-6-6-6-8-8-8-8-8-------------------------------|
E|4-4-4-4-4-4-4-4-4-4-4-4-4-4-4-4-------------------------------------------9-9-9-9-9-9-9-9-9-9-9-9-9-9-9-9|
 
G|---------------------------------------------------------------------------------------------------------|
D|---------------------------------------------------------------------------------------------------------|
A|-------------------------------4-4-4-4-4-4-4-4-4-4-4-4-6-6-6-6-6-8-8-8-8-8-------------------------------|
E|4-4-4-4-4-4-4-4-4-4-4-4-4-4-4-4-------------------------------------------9-9-9-9-9-9-9-9-9-9-9-9-9-9-9-9|
 
[Bridge]
 
G|-----------------------------------------------|
D|-----------------------------------------------|
A|6-6-6-6-6-6-6-6-8-8-8-8-8-8-8-8----------------|
E|--------------------------------9-9-9-9-9-9-9-9|
 
G|-----------------------------------------------|
D|-----------------------------------------------|
A|6-6-6-6-6-6-6-6-8-8-8-8-8-8-8-8----------------|
E|--------------------------------9-9-9-9-9-9-9-9|
 
G|-------------------------------------------------|
D|-------------------------------------------------|
A|6-6-6-6-6-6-6-6-8-8-8-8-8-8-8-8------------------|
E|--------------------------------9-9-9-9-9-9-9-9-4|
 
 
[Chorus]
 
G|---------------------------------------------------------------------------------------------------------|
D|---------------------------------------------------------------------------------------------------------|
A|-------------------------------4-4-4-4-4-4-4-4-4-4-4-4-6-6-6-6-6-8-8-8-8-8-------------------------------|
E|4-4-4-4-4-4-4-4-4-4-4-4-4-4-4-4-------------------------------------------9-9-9-9-9-9-9-9-9-9-9-9-9-9-9-9|
 
G|-----------------------|
D|-----------------------|
A|4-4-4-4-4-4-6-6-6-6-6-6|
E|-----------------------|
 
G|-----------------------|
D|-----------------------|
A|4-4-4-4-4-4-6-6-6-6-6-6|
E|-----------------------|
 
G|-----------------------|
D|-----------------------|
A|4-4-4-4-4-4-6-6-6-6-6-6|
E|-----------------------|
 
 
[Outro]
 
G|---------------------------------------|
D|---------------------------------------|
A|---------------------------------------|
E|4-4-4-4-4-4-4-4-8-8-6-6-6-6-6-6-6-6-9-9|
 
G|---------------------|
D|---------------------|
A|---------------------|
E|4-4-4-4-4-4-4-4-8-8-6|
            
Submit corrections

↑ Back to top | Tablatures and chords for acoustic guitar and electric guitar, ukulele, drums are parodies/interpretations of the original songs. You may use it for private study, scholarship, research or language learning purposes only