» » »

Tokyo Police Club - Citizens Of Tomorrow Bass

Artists:  A B C D E F G H I J K L M N O P Q R S T U V W X Y Z # 

Citizens Of Tomorrow Bass

(ver. 1) Click to play this song!
Tokyo Police Club
 Rating:
4/5 (7 votes)
                Start at 0:52
G|--------------------------------------|
D|--33-------22-------------------------| 2X
A|--------33---------3-3-3333-5-5-5555--|
E|-----55-------55-5--------------------|

G|--------------|
D|--------------| 4X
A|-----0~-3~-5~-|
E|--1~----------|

G|--------------------------------------|
D|--33-------22-------------------------| 2X
A|--------33---------3-3-3333-5-5-5555--|
E|-----55-------55-5--------------------|

G|-------------------------------------|
D|--33-------22----------555-----7575--| 2X
A|--------33---------3-3------5-5------|
E|-----55-------55-5-------------------|

------------
Please Rate!
            
Submit corrections

↑ Back to top | Tablatures and chords for acoustic guitar and electric guitar, ukulele, drums are parodies/interpretations of the original songs. You may use it for private study, scholarship, research or language learning purposes only