Home » T » T.O.E. »

T.O.E. - Two Moons Tabs

Artists:  A B C D E F G H I J K L M N O P Q R S T U V W X Y Z # 

Two Moons Tabs

(ver. 2) Click to play this song!
T.O.E.
Song Title: Two Moons
Band/Artist: toe
Tuning: (D# A# F# B G# E)


 /   slide up
 h   hammer-on
 p   pull-off
 ~   vibrato
 *   harmonic

rox, para sayo ito

*note - not sure what to call this kind of tuning i just read this tuning in some 
feel free to message me if you know what kind of tuning this is

*please rate*

intro

D#|--------|-------1-|-0-----|
A#|--3-----|--0------|---3-1-|
F#|----2-0-|----0----|-------|
B |--------|---------|-------|
G#|--------|---------|-------|
E |--------|---------|-------|

D#|------------3p0-----|--------------------| x2
A#|-------1--------1---|-----5p3------3p1---|
F#|----0-------------0-|---------0--------0-|
B |--------------------|--------------------|
G#|--------------------|--------------------|
E |--0------0----------|--0---------0-------|

D#|------------3p0-----|--------------------|
A#|-------1--------1---|-----5p3------3p1---|
F#|----0-------------0-|---------0--------0-|
B |--------------------|--------------------|
G#|--0--------0--------|--0-----------------|
E |--------------------|------------2-------|

just repeat until...



0:52

D#|----------------|---------5h7----|-------7-5------|-----------------| x2
A#|-------8p5------|-------------5--|-----------5----|-----------------|
F#|-------5---5----|------0---------|-------------5--|-----------------|
B |----0--------7--|----0-----------|----0-----------|------7-----7*---|
G#|----------------|----------------|----------------|----5-----5*--5*-|
E |--0-------------|--2-------------|--4-------------|--7--------------|


D#|----------------|---------5h7----|-------7-5------|-----------------|
A#|-------8p5------|-------------5--|-----------5----|-----------------|
F#|-------5---5----|------0---------|-------------5--|-----------------|
B |----0--------7--|----0-----------|----0-----------|------7----7*-5*-|
G#|----------------|----------------|----------------|----5----5*------|
E |--0-------------|--2-------------|--4-------------|--7--------------| 


D#|----------------|---------5h7----|-------7-5------|-----------------|
A#|-------8p5------|-------------5--|-----------5----|-----------------|
F#|-------5---5----|------0---------|-------------5--|---------7---5---| 
B |----0--------7--|----0-----------|----0-----------|---------------7-|
G#|----------------|----------------|----------------|----5------------|
E |--0-------------|--2-------------|--4-------------|--7---7----------|



1:19
repeat intro


1:53

D#|----------------|---------5h7----|-------7-5------|-----------------| x2
A#|-------8p5------|-------------5--|-----------5----|-----------------|
F#|-------5---5----|------0---------|-------------5--|-----------------|
B |----0--------7--|----0-----------|----0-----------|------7-----7*---|
G#|----------------|----------------|----------------|----5-----5*--5*-|
E |--0-------------|--2-------------|--4-------------|--7--------------|


D#|----------------|---------5h7----|-------7-5------|--------------7*-|
A#|-------8p5------|-------------5--|-----------5----|-----------------|
F#|-------5---5----|------0---------|-------------5--|-----------------|
B |----0--------7--|----0-----------|----0-----------|------7----7*----|
G#|----------------|----------------|----------------|----5----5*------|
E |--0-------------|--2-------------|--4-------------|--7--------------| 

D#|----------------|---------5h7----|-------7-5------|------------12*--|
A#|-------8p5------|-------------5--|-----------5----|------------12*--|
F#|-------5---5----|------0---------|-------------5--|------------12*--| 
B |----0--------7--|----0-----------|----0-----------|-----------------|
G#|----------------|----------------|----------------|-----------------|
E |--0-------------|--2-------------|--4-------------|--7---9----------|



2:24

D#|----------------|--------------0-----------| x2
A#|--3h5p3\1-------|----0h1--3p1--------------|
F#|-----------0----|--------------------------|
B |----------------|--------------------------|
G#|----------------|--------------------------|
E |----------------|--0-----------------------|

D#|----------------|--------------0-----------|
A#|--3h5p3\1-------|----0h1--3p1--------------|
F#|-----------0----|--------------------------|
B |----------------|--------------------------|
G#|----------------|--0-----------------------|
E |----------------|--------------------------|

D#|----------------|--------------3-----------|
A#|--3h5p3\1-------|----0h1--3p1--------------|
F#|-----------0----|--------------------------|
B |----------------|--------------------------|
G#|----------------|--0-----------------------|
E |----------------|--------------------------|




2:54

D#|--3-------------|--5-------------| 
A#|----1---1-------|----1---1-------|
F#|------4---4-----|------4---4-----|
B |----------------|----------------|
G#|----------------|----------------|
E |----------------|----------------|


continue doing above x16 more or... (you can ignore all the zeros if you want) 

D#|--3------------5------------7----7------8-----8/10----8---------|
A#|----------------------------------------------------------------|
F#|-------0-----------0---------------0-------0--------------0-----|
B |---------0-----------0---------------0----------------------0---|
G#|------------------------------------------------------0-0-----0-|
E |--0--0-----0---0--0-----0---0-0---------0-----0-----------------|

--8-----------10-----------10p8----5p3---|
-----------------------------------------|
------0------------0------------0------0-|
--------0------------0-------------------|
--0-0-----0---0--0-----0-----------------|
-----------------------------------------|



D#|--3------------5------------7--------------7---8/10--8---------|
A#|---------------------------------------------------------------|
F#|-------0-----------0----------------0--------0-----------0-----|
B |---------0-----------0----------------0--------------------0---|
G#|-----------------------------------------------------0-0-----0-|
E |--0--0-----0---0--0-----0---0---0-0-----0--0---0---------------|

--8-----------10-----------10p8----5p3---|
-----------------------------------------|
------0------------0------------0------0-|
--------0------------0-------------------|
--0-0-----0---0--0-----0-----------------|
-----------------------------------------|




D#|--3-------------5-------------3-------------1----------|
A#|-------------------------------------------------------|
F#|-------0-------------0-------------0-------------0-----|
B |---------0-------------0-------------0-------------0---|
G#|-------------------------------------------------------|
E |--0--0-----0----0--0-----0----0--0-----0----0--0-----0-|

--3------------------------5-------------3----------| x2
----------------------------------------------------|
-------0------0----0-------------0------------0-----|
---------0-----------0-------------0------------0---|
--0--0-----0--0--0-----0---0--0------0---0--0-----0-|
----------------------------------------------------|




3:38 (Outro)

D#|------------3p0-----|--------------------| x4
A#|-------1--------1---|-----5p3------3p1---|
F#|----0-------------0-|---------0--------0-|
B |--------------------|--------------------|
G#|--------------------|--------------------|
E |--0------0----------|--0---------0-------|


D#|----------------|---------5h7----|-------7-5------|--------------7*-|
A#|-------8p5------|-------------5--|-----------5----|-----------------|
F#|-------5---5----|------0---------|-------------5--|-----------------|
B |----0--------7--|----0-----------|----0-----------|------7----7*----|
G#|----------------|----------------|----------------|----5----5*------|
E |--0-------------|--2-------------|--4-------------|--7--------------| 


any corrections? please message me! will update tab from time to time
            
Submit corrections

↑ Back to top | Tablatures and chords for acoustic guitar and electric guitar, ukulele, drums are parodies/interpretations of the original songs. You may use it for private study, scholarship, research or language learning purposes only