Home » T » T.O.E. »

T.O.E. - Choke Tabs

Artists:  A B C D E F G H I J K L M N O P Q R S T U V W X Y Z # 

Choke Tabs

(ver. 1) Click to play this song!
T.O.E.
Standard Tunning(EADGBe)
Lead Intro 1        Intro 2
-----------------|---|-----------------|---|-Intro-3----------------
------6-6-6-5-6-5|---|-6-6-6-6-5h6p5---|---|------------------------
-5-5-5-----------|---|---------------5-|---|1010101010101010101010--
-----------------|X12|-----------------|X6-|-x-x-x-x-x-x-x-x-x-x-x--
-----------------|---|-----------------|---|-8-8-8-8-8-8-8-8-8-8-8--
-----------------|---|-----------------|---|------------------------
First Intro ALL PALM MUTED

Lead Intro3 Continued
------|--|
------|--|
-9--7-|--|
-x--x-|X1|
-7--5-|--|
------|--|

Rhythmn-Intro-----------------|
------------------------------|
--------------77-77-----------|
888-1010-1010-77-771010-1010--|X2
888-1010-1010-55-55-8-8--8-8--|
666--8-8--8-8-----------------|

Rhythmn end of intro
-------|
-------|
-------|
-5--7--|
-5--7--|
-3--5--|
Verse both guitars
---------------|--|------------|--|-------|
---------------|--|------------|--|-------|
-7xxxxxxxxxxx77|--|10-9xx9x9x9x|--|9/10\9-|
-7xxxxxxxxxxx77|X1|-x-xxxxxxxxx|X2|x/x\-x-|X1
-5xxxxxxxxxxx55|--|-8-7xx7x7x7x|--|7/8\-7-|
---------------|--|------------|--|-------|
Chorus both guitars
------------------------------|
------------------------------|
--------------77-77101010-999-|
888-1010-1010-77-77-x-x-x-xxx-|X2
888-1010-1010-55-55-8-8-8-777-|
666--8-8--8-8-----------------|
Chorus Continued              
----------------------------------------------------------   
----------------------------------------------------------
----------------10-10-10-10-10-10-10-10-10-10-10-10-10-10-
888-10-10-10-10--x--x--x--x--x--x--x--x--x--x--x--x--x--x-
888-10-10-10-10--8--8--8--8--8--8--8--8--8--8--8--8--8--8-
666--8--8--8--8-------------------------------------------

Chorus Contiuned second time of chorus play note thats indicated
----------------------------|
----------------------------|
--------------10--9--7--5*7*|
88810-10-10-10-x--x--x--x*x*|
88810-10-10-10-8--7--5--3*5*|
666-8--8--8--8--------------|
Than Play the Whole Intro 
Than play the verse 
than Play the chorus

Both play this| than on the 3rdX lead plays this
------------|--|-----------------------|
------------|--|-----------------------|
------7-----|--|7-7/9/10-10/12\10-9-7--|
8-10--7-6-10|x1|x-x/x/-x--x/x-\x--x-x--|X2
8-10--5-6-10|--|5-5/7/-8--8/10\8--7-5--|
6--8----8--8|--|-----------------------|
Bridge Continued Both Guitars play 2X with pauses
-------------------------|
-------------------------|
77-77---------77-77------|than strum them longer without pauses
77-77-88-1010-77-77-66-10|
55-55-88-1010-55-55-66-10|
------66--8-8-------88--8|
Bass Solo(if wondering)
-0-0-14-14-15-15-14-14-0-0-14-14-15-15-14-14------15-15-14-14-12-12
---------------------------------------------13-13-----------------
Bass Solo Continued
-------------------------|
-------17-17-15-15-14-14-|
-15-15-------------------|X2
-------------------------|
Guitar Solo
-----------------------------------------|
-----------------------------------------|
-----------------------------------------|
---5-7-5-8-7-5h7p5----5-7-5---5-5h7p5----|X2
-55---------------8------------------h8--|
-xx-----------------66------88-----------|
                    xx      xx
Ending
---------------------------------------------|
---------------------------------------------|
--------5-------3----7----5-----3---7---5----|
-3------5-X12---3X6--7X3--5X3---3X6-7X3-5X3--|X2
-3X12---3-------1----5----3-----1---5---3----|
-1-------------------------------------------|

Outro
---------------------------------------|
---------------------------------------|
---5-3-3-------------------------------|
3--5-3-3-----33333---55555-33333-33333-|
3--3-1-1-----33333---33333-11111-11111-|
1------------11111---xxxx--xxxx--xxxx--|
             xxxx 
That's It ONCE gain If you need Any T.O.E.(Aka"Cauterize")Tabs e-mail
                    Thanks For your Time
               "TO YOU I BID A FOND FAREWELL"-Pulley
            
Submit corrections

↑ Back to top | Tablatures and chords for acoustic guitar and electric guitar, ukulele, drums are parodies/interpretations of the original songs. You may use it for private study, scholarship, research or language learning purposes only