» » »

Toby Turner - Tobuscus Bass

Artists:  A B C D E F G H I J K L M N O P Q R S T U V W X Y Z # 

Tobuscus Bass

(ver. 1) Click to play this song!
Toby Turner
 Rating:
4/5 (4 votes)


 Tobuscus lessons Tabs too difficult? Try these video lessons and learn fast
 
                (Theme)
Tobuscus Theme Bass Tab


This is the first bass tab I have written, and I'm pretty proud of it.
I've checked it numerous times for any mistakes and I can 99.9% guarantee you that it is 
completely accurate. :D


G|-------0h2---9-7---7-7---10-7------------0h2---5-----5-5/7-7---7---------0h2---9-7-|
D|-3h5-0-----0-----------0------10-7-3h5-0-----0-5-----5-5/7-7---7---3h5-0-----0-----|
A|-----------------------------------------------3-----3-3/5-5---5-------------------|
E|-----------------------------------------------------------------------------------|


G|-7-7---10-7------------------5-7/10-----------------7h5--5-------------------------|
D|-----0------10-7-3h5-0h3/5-7----------10---12----------7---7-5---7-8---7-5---7---0-|
A|-----------------------------------------------------------------------------------|
E|-----------------------------------------------------------------------------------|


G|-7h5--5---5---7-7/9---7-5h7-7-------7h5--5---------------------------3-2-0---------|
D|----7---7------------------------------7---7-5---7-8---7-5---7---0---------3-2-----|
A|---------------------------------------------------------------------------------3-|
E|-----------------------------------------------------------------------------------|


G|---------------------------0h2---9-7---7-7---10-7------------0h2---5-----5-5/7-7---7-|
D|-3---2---------------3h5-0-----0-----------0------10-7-3h5-0-----0-5-----5-5/7-7---7-|
A|-------3---3/5-----------------------------------------------------3-----3-3/5-5---5-|
E|-------------------------------------------------------------------------------------|


G|-------0h2---9-7---7-7---10-7------------------5-7/10-----------|
D|-3h5-0-----0-----------0------10-7-3h5-0h3/5-7----------10---12-|
A|----------------------------------------------------------------|
E|----------------------------------------------------------------|
            
Submit corrections



        Tobuscus lessons Hard to play? Try these video lessons and learn fast Tobuscus lessons
        
↑ Back to top | Tablatures and chords for acoustic guitar and electric guitar, ukulele, drums are parodies/interpretations of the original songs. You may use it for private study, scholarship, research or language learning purposes only