Home » T » Toby Turner »

Toby Turner - Dramtic Song Tabs

Artists:  A B C D E F G H I J K L M N O P Q R S T U V W X Y Z # 

Dramtic Song Tabs

(ver. 1) Click to play this song!
Toby Turner
 Capo 3 fret

  Am        Asus4    Am/G    Dm        
e|----------------0-|---------1-0---0--|
b|------1---3---3---|-----1-------3----|
g|--------2---2-----|-------2----------|
d|---2--------------|---2--------------|
a|-0----------------|------------------|
e|------------------|-3----------------|

  F         Dsus2    E       Am   
e|----------------0-|------------------|
b|-----1----3---3---|-----0---3-1-0-1--|
g|-------2----2-----|-------1----------|
d|---3--------------|---2--------------|
a|------------------|------------------|
e|-1----------------|-0----------------|

            
Submit corrections

↑ Back to top | Tablatures and chords for acoustic guitar and electric guitar, ukulele, drums are parodies/interpretations of the original songs. You may use it for private study, scholarship, research or language learning purposes only