Home » T » Toby Keith »

Toby Keith - Who's That Man Tabs

Artists:  A B C D E F G H I J K L M N O P Q R S T U V W X Y Z # 

Who's That Man Tabs

(ver. 2) Click to play this song!
Toby Keith
"Toby Keith:  Who's That Man

Guitar Solo:

	D		    Bm		      F#m       G
E[----------------10-10-------------------------------------------------------------]
B[-------10--12--------12p10-----10h12--12p10\7-----7—7\2—2h3-5-3-------------------]
G[--11-----------------------11-----------------------------------------------------]
D[----------------------------------------------------------------------------------]
A[----------------------------------------------------------------------------------]
E[----------------------------------------------------------------------------------]

	D		A7		A	A7
E[----------------------------------------7-7/10-10/12--12-(let ring)----]
B[-----3-5-3-5-3-5/7---5-7-5-7-5-7/10--10--------------------------------]
G[-----------------------------------------------------------------------]
D[-----------------------------------------------------------------------]
A[-----------------------------------------------------------------------]
E[-----------------------------------------------------------------------]
"            
Submit corrections

↑ Back to top | Tablatures and chords for acoustic guitar and electric guitar, ukulele, drums are parodies/interpretations of the original songs. You may use it for private study, scholarship, research or language learning purposes only