» » »

Toadies - Pressed Against The Sky Tabs

Artists:  A B C D E F G H I J K L M N O P Q R S T U V W X Y Z # 

Pressed Against The Sky Tabs

(ver. 2) Click to play this song!
Toadies
 Rating:
4/5 (4 votes)

 Pressed Against The Sky lessons Tabs too difficult? Try these video lessons and learn fast
 
                (Intro)
This is my first tab and I made this one because it is one of the best Toadies
songs ever and I couldn't find any tabs for it.  I'll be making more and learning
Tuning:

e|-----3---3---3---3---3------------------------------2------2-----2-----------------|
B|----3---3---3---3---3-------------------------------2------2-----2-----------------|
G|---4---4---4---4---4--------5---5---5---5---5---5---2--4---2--4--2--4--------------|
D|--5---5---5---5---5--------3---3---3---3---3---3----2--4---2--4--2--4--------------|
A|-5---5---5---5---5--------5---5---5---5---5---5-----2------2-----2-----------------|
E|3---3---3---3---3-----------------------------------2------2-----2-----------------|

e|-2--------3-------------------------------------------------------------------------|
B|-2--------3-----------5------3------------------------------------------------------|
G|-2--4-----3--5---------------------3------4------0----------------------------------|
D|-2--4-----3--5----------------------------------------------------------------------|
A|-2--------3-------------------------------------------------------------------------|
E|-2--------3-------------------------------------------------------------------------|
            
Submit corrections


        Pressed Against The Sky lessons Hard to play? Try these video lessons and learn fast Pressed Against The Sky lessons
        
↑ Back to top | Tablatures and chords for acoustic guitar and electric guitar, ukulele, drums are parodies/interpretations of the original songs. You may use it for private study, scholarship, research or language learning purposes only