» » »

Tnt - Without Your Love Tabs

Artists:  A B C D E F G H I J K L M N O P Q R S T U V W X Y Z # 

Without Your Love Tabs

(ver. 1) Click to play this song!
Tnt
 Rating:
4.3/5 (10 votes)

 Without Your Love lessons Tabs too difficult? Try these video lessons and learn fast
 
                [Intro]
    Clean tone
    (0'24")                 (0'29")          (0'39")
Eb|-----------------------------------------------11-12--|
Bb|-9/10-10-10-10/12----------------5----------12--------|
Gb|------------------9----------2-4----------9-----------|
Db|-------------------------2-4--------------------------|
Ab|------------------------------------------------------|
Eb|------------------------------------------------------|

[Chorus]
Eb|--9------0-------0-------0---0-------0------0-----0-------0-------0-----|
Bb|-------------2-------2-----------2------------------2---------2-------2-|
Gb|-----------4-------4-----------4---4------------------4-----4-------4---|
Db|------------------------------------------------------------------------|
Ab|------------------------------------------------------------------------|
Eb|------------------------------------------------------------------------|

             Clean Tone
Eb|-0---0---0----0---9---9--0--|
Bb|----------------------------|
Gb|----------------------------|
Db|----------------------------|
Ab|----------------------------|
Eb|----------------------------|

  2nd Verse
Eb|---------4-----------------|
Bb|-5-------------------------|
Gb|---------------------------|   with feedback
Db|---------------------------|   and volume pedal
Ab|---------------------------|
Eb|---------------------------|

  [2nd Chorus] (w/ Distortion)
Eb|-----------------------------------------------------|
Bb|-----------------------------------------------------|
Gb|-6---------4---------2-------------------------------|
Db|-6---------4---------2-------------------------------|
Ab|-4---------2---------0----------------------------xx-|
Eb|-----------------------------------------------------|

 [Clean Tone]
Eb|---0-------0---------0-------0-------0-------0-------|
Bb|-------2-------2---------2-------2-------2-------2---|
Gb|-4---4-------4---------4-------4-------4-------4-----|
Db|-----------------------------------------------------|
Ab|-----------------------------------------------------|
Eb|-----------------------------------------------------|

Eb|-----------------------------------------------------------------------------|
Bb|-----------------------------------------------------------------------------|
Gb|-6---------4-----------2--------------------------------6-------4----------2-|
Db|-6---------4-----------2--------------------------------6-------4----------2-|
Ab|-4---------2-----------0-----------------------------xx-4-------2----------0-|
Eb|-----------------------------------------------------------------------------|
  
   [Clean Tone]
Eb|-0-------0---0-------0----0-------0-------0-------0----------0--------0----0-|
Bb|-----2-----------2------------2-------2-------2-------------------2----------|
Gb|---4---4-------4---4--------4-------4-------4-------4---------------4--------|
Db|-----------------------------------------------------------------------------|
Ab|-----------------------------------------------------------------------------|
Eb|-----------------------------------------------------------------------------|

 [Guitar Solo]
Eb|------------------------------------------16-17-19~---16-------16-------|
Bb|--------------------------------12~--12------------------19b1/----17~---|
Gb|---------------11b1/--11b1/-\p9-------|-------------------------w/ Arm--|
Db|--------7-9-11----------------------------------------------------------|
Ab|-7-9-11-----------------------------------------------------------------|
Eb|------------------------------------------------------------------------|
    PM----------|                       Push arm down
Eb|------------------------------------------------------------------------|
Bb|------------------------------------------------------------------------|
Gb|----------------8bh/---8bh/-\p6--8~---8---------------------------------|
Db|------------------------------------------------------------------------|
Ab|------------------------------------------------------------------------|
Eb|------------------------------------------------------------------------|

Eb|-16-17-19-16-17----16---------------------------|
Bb|----------------19----17-19-16-17----16---------|
Gb|----------------------------------18----16-18~--|
Db|------------------------------------------------|
Ab|------------------------------------------------|
Eb|------------------------------------------------|

Eb|------------------------------------------------|
Bb|-------16----14---------------------------------|
Gb|----------13----13-16----14----13---------------|
Db|----------------------16----14----14-16-13-14~--|
Ab|----------------------------------------PM------|
Eb|------------------------------------------------|

Eb|-----------------------------------------------------------------------------|
Bb|--------------------------------------------------------12~------------------|
Gb|--8--9-11---8--9-----8--------------------------9-11/13------13/15--12-------|
Db|-----------------11----9-11-8-9----8-9~---9h11-------------------------14\11-|
Ab|--------------------------------11-------------------------------------------|
Eb|-----------------------------------------------------------------------------|

Eb|-----------------------------------------------------------------------------|
Bb|--------------------------------------------------------15~------------------|
Gb|-11-13-14--11-13----11--------------11~--------12-14/16------16/18--15-------|
Db|-----------------14---13-----------------12h14-------------------------17\14-|
Ab|-----------------------------------------------------------------------------|
Eb|-----------------------------------------------------------------------------|

Eb|------------------------------------------------------------------------|
Bb|------------------------------------------------------------------------|
Gb|---------8-10-12-10-8---------------------------------------------------|
Db|-8-10-12--------------12-10-8-10-12-13-8----------8---------------------|
Ab|-----------------------------------------11-10-11---11-10----8h10p8-----|
Eb|--------------------------------------------------------------------11~-|
   PM---------------------------------------------------------------------|

Eb|------------5-4~----5-4~----5-4~----5-4---5-4---5-4---5-4---5-4---5-4---4~-|
Bb|----------2-------2-------2-------2-----2-----2-----2-----2-----2-----2----|
Gb|---------------------------------------------------------------------------|
Db|---------------------------------------------------------------------------|
Ab|---------------------------------------------------------------------------|
Eb|-6-8-6~--------------------------------------------------------------------|
    PMPM     PM      PM      PM      PM    PM    PM    PM    PM    PM    PM

Eb|------------9-7~----9-7~----9-7~----9-7---9-7---9-7---9-7---9-7---9-7---7~-|
Bb|----------5-------5-------5-------5-----5-----5-----5-----5-----5-----5----|
Gb|---------------------------------------------------------------------------|
Db|---------------------------------------------------------------------------|
Ab|---------------------------------------------------------------------------|
Eb|---------------------------------------------------------------------------|
             PM      PM      PM      PM    PM    PM    PM    PM    PM    PM
Eb|-/9~---7\--5-4-----------------------|
Bb|---------------5^7-4---------4---/5~-|
Gb|---------------------6---4-6---4-----|
Db|-------------------------------------|
Ab|-------------------------------------|
Eb|-------------------------------------|
                            PMPM
Eb|-------------------------------------|
Bb|-------------------------------------|
Gb|-/9~---8\--6-4-1^2-------------------|
Db|-------------------4-2---1-2-4-------|
Ab|-------------------------------2-/4~-|
Eb|-------------------------------------|
                            PMPM
  [Outro chorus]
Eb|---------------------------------------------|
Bb|---------------------------------------------|
Gb|-6-------4---------2-------------------------|
Db|-6-------4---------2-------------------------|
Ab|-4-------2---------0----------------------xx-|
Eb|---------------------------------------------|

   Clean Tone
Eb|-0-----0---0-----0---0-------0-----0-----0---|
Bb|-----2---------2---------2-------------------|
Gb|---4---------4---------4-------4-----4-------|
Db|---------------------------------------------|
Ab|---------------------------------------------|
Eb|---------------------------------------------|

Eb|----------------------------------------------|
Bb|----------------------------------------------|
Gb|-6-------4---------2--------------------------|
Db|-6-------4---------2-------------2-2-2-2-2-4--|
Ab|-4-------2---------0-------------0-0-0-0-0-2--|
Eb|----------------------------------------------|

   Clean Tone
Eb|-0-----0---0-----0---0-------0----------------|
Bb|-----2---------2---------2--------------------|
Gb|---4---------4---------4-------4--------------|
Db|----------------------------------------------|
Ab|----------------------------------------------|
Eb|----------------------------------------------|

Eb|-----------------------------12\11--11\9--9\7--7\---------------------|
Bb|----------------------------------------------------------------------|
Gb|-6-------4---------2---------------------------------------2------4-4-|
Db|-6-------4---------2---------------------------------------2------4-4-|
Ab|-4-------2---------0---------------------------------------0------2-2-|
Eb|----------------------------------------------------------------------|

    Clean Tone
Eb|-0-----0---0-----0---0-------0-------0-------0------------------------|
Bb|-----2---------2---------2-------2-------2----------------------------|
Gb|---4---------4---------4-------4-------4-------4----------------------|
Db|----------------------------------------------------------------------|
Ab|----------------------------------------------------------------------|
Eb|----------------------------------------------------------------------|

Eb|----------------------------------------------------------|
Bb|----------------------------------------------------------|
Gb|-6---------4----------2-----------------------------------|
Db|-6---------4----------2----9-xx-8-xx-6-xx-4-xx-2-xx-4-xx--|
Ab|-4---------2----------0----7-xx-6-xx-4-xx-2-xx-0-xx-2-xx--|
Eb|----------------------------------------------------------|

   Clean Tone
Eb|-----2-0-------0----0---0-----0-------0---0-----0-------0-|
Bb|----------------------------4-------4---------4-------4---|
Gb|---4---------4----4-------4-------4---------4-------4-----|
Db|----------------------------------------------------------|
Ab|----------------------------------------------------------|
Eb|----------------------------------------------------------|

Eb|--------------------------|
Bb|--------------------------|
Gb|-6-------4-------------2--|
Db|-6-------4-------------2--|
Ab|-4-------2-------------0--|
Eb|--------------------------|

   Clean Tone
Eb|-0-----0-----0----0----0--|
Bb|-----4-----------------2--|
Gb|---4-------4----4------4--|
Db|--------------------------|
Ab|--------------------------|
Eb|--------------------------|            
Submit corrections


        Without Your Love lessons Hard to play? Try these video lessons and learn fast Without Your Love lessons
        
↑ Back to top | Tablatures and chords for acoustic guitar and electric guitar, ukulele, drums are parodies/interpretations of the original songs. You may use it for private study, scholarship, research or language learning purposes only