» » »

Tnt - Tabs

Artists:  A B C D E F G H I J K L M N O P Q R S T U V W X Y Z # 

Tabs

(ver. 1) Click to play this song!
Tnt
 Rating:
4.4/5 (14 votes)

  lessons Tabs too difficult? Try these video lessons and learn fast
 
                 [Intro]
Eb|-----------------------------------------------------------9---
Bb|---------------------------------------------------------------
Gb|----------------------------9-10---10---9-----9---9---11-------
Db|---10--9-10------12--10-12-----------------12------------------
Ab|---------------------------------------------------------------
Eb|---------------------------------------------------------------
  |
Eb|---------------------------------------------------------------
Bb|---------------------------------------------------------------
Gb|---------------------------------------------------------------
Db|---------------------------------------------------------------
Ab|---3~------------2~--------------------------------------------
Eb|-3---------------------------------3----3-----4---5----5---5---
    PM

Eb|-12---14~---12~--12~----------------------------------------------|
Bb|--------w/---w/-----------------------------10---10~--------------|
Gb|--------arm--arm---------------10--9-10--12-----------12--11-13~--|
Db|------------------9--8-9------------------------------------------|
Ab|------------------------------------------------------------------|
Eb|------------------------------------------------------------------|
                                  pm---------|

Eb|-9----10~---9~---8~-----------------------------------------------|
Bb|--------w/---w/---------------------------------------------------|
Gb|--------arm--arm--------------------------9-10---10~---9-----9~---|
Db|-----------------10--9-10------12--10-12------------------12------|
Ab|------------------------------------------------------------------|
Eb|------------------------------------------------------------------|
                                  pm---------|

Eb|------------------------------------------------------------------|
Bb|------------------------------------------------------------------|
Gb|------------------------------------------------------------------|
Db|------------------------------------------------------------------|
Ab|-2---2----2---3~---------------2~---------------------------------|
Eb|--------------------------------------------------3----------4----|

Eb|---------12--12-----14~-12---|
Bb|--------------------w/-------|
Gb|-13--14-------------bar------|
Db|-----------------------------|
Ab|-----------------------------|
Eb|-----------------------------|

Eb|----------9---9-----10~-9----|
Bb|--------------------w/-------|
Gb|-9---11-------------bar------|
Db|-----------------------------|
Ab|-----------------------------|
Eb|-----------------------------|

Eb|-----------------------------|
Bb|-----------------------------|
Gb|-----------------------------|
Db|-----------------------------|
Ab|-----------------2-----------|
Eb|-----5-----------------------|

 [Verse]
Eb|-12~----------------------------------------------------------|
Bb|--------------------------------------------------------------|
Gb|--9---10----9---8---7-------------------9---10----9---8-\7/8--|
Db|------------------------10---10----9--------------------w/----|
Ab|--------------------------------------------------------bar---|
Eb|--------------------------------------------------------------|

Eb|-8~-----------------------------------------------------------|
Bb|--------------------------------------------------------------|
Gb|--------------------------------------------------------------|
Db|-10---12---10---9---9------------------10---12---10---9-------|
Ab|------------------------12---12---11--------------------------|
Eb|--------------------------------------------------------------|

Eb|--------------------------------------------------------------|
Bb|--------------------------------------------------------------|
Gb|--------------------------------------------------------------|
Db|--------------------------------------------------------------|
Ab|-0--------------------------------------0---------------------|
Eb|--------------------4----2----1----0------------------4-------|

Eb|---------------------------------------------------------------|
Bb|----------------9-10----9------------------8---10--10-----11---|
Gb|-9----9----10--------11---9-11--8---9-8~--------------12-------|
Db|---------------------------------------------------------------|
Ab|---------------------------------------------------------------|
Eb|---------------------------------------------------------------|

Eb|---------------------------------------------------------------|
Bb|---------------------------------------------------------------|
Gb|----------------9-10----9------------------9---11--11-9---12---|
Db|-10---10---10--------12---10-12-9--10-9~-----------------------|
Ab|---------------------------------------------------------------|
Eb|---------------------------------------------------------------|

Eb|---------------------------------------------------------------|
Bb|---------------------------------------------------------------|
Gb|---------------------------------------------------------------|
Db|-----------3-----2-3-0-2---0---------------2----0---1-2--------|
Ab|-5----6------------------3---2--3-2~----------------------3----|
Eb|---------------------------------------------------------------|

Eb|----------------------|
Bb|-10--------10---12----|
Gb|------12--------------|
Db|----------------------|
Ab|----------------------|
Eb|----------------------|

Eb|----------------------|
Bb|----------------9-----|
Gb|-8----9----11---------|
Db|----------------------|
Ab|----------------------|
Eb|----------------------|

Eb|----------------------|
Bb|----------------------|
Gb|----------------------|
Db|------2----4----6-----|
Ab|-2--------------------|
Eb|----------------------|

 [Chorus]
Eb|---------------------------------------------------|
Bb|---------------------------------------------------|
Gb|------7--------------------------------------------|
Db|-7----7--------------------------------------11----|
Ab|-7----5-------------5~--3--2--0----2----0----------|
Eb|-5---------3--2--0---------------------------------|

Eb|---------------------------------------------------|
Bb|---------------------------------------------------|
Gb|-9----7-----------------------5----7----9----9-----|
Db|-9----7--------------------------------------------|
Ab|-7----5-------------5~--3--2-----------------------|
Eb|-----------3--2--0---------------------------------|

Eb|--------------------------------------------------|
Bb|--------------------------------------------------|
Gb|------7-------------------------------------------|
Db|-7----7-------------------------------------------|
Ab|-7----5----------------------4--3----2----5-------|
Eb|-5---------3--2--0--4-4-4-5-----------------------|
                      PMPMPM
Eb|--------------------------------------------------|
Bb|--------------------------------------------------|
Gb|-9----7-------------------------9----7----7-------|
Db|-9----7-------------------------------------------|
Ab|-7----5----------------------4--------------------|
Eb|-----------3--2--0--4-4-4-5-----------------------|
                      PMPMPM
 [Verse]
Eb|-12~----------------------------------------------------------|
Bb|--------------------------------------------------------------|
Gb|--9---10----9---8---7-------------------9---10----9---8-\7/8--|
Db|------------------------10---10----9--------------------w/----|
Ab|--------------------------------------------------------bar---|
Eb|--------------------------------------------------------------|

Eb|-8~-----------------------------------------------------------|
Bb|--------------------------------------------------------------|
Gb|--------------------------------------------------------------|
Db|-10---12---10---9---9------------------10---12---10---9-------|
Ab|------------------------12---12---11--------------------------|
Eb|--------------------------------------------------------------|

Eb|--------------------------------------------------------------|
Bb|--------------------------------------------------------------|
Gb|--------------------------------------------------------------|
Db|--------------------------------------------------------------|
Ab|-0--------------------------------------0---------------------|
Eb|--------------------4----2----1----0------------------4-------|

Eb|---------------------------------------------------------------|
Bb|----------------9-10----9------------------8---10--10-----11---|
Gb|-9----9----10--------11---9-11--8---9-8~--------------12-------|
Db|---------------------------------------------------------------|
Ab|---------------------------------------------------------------|
Eb|---------------------------------------------------------------|

Eb|---------------------------------------------------------------|
Bb|---------------------------------------------------------------|
Gb|----------------9-10----9------------------9---11--11-9---12---|
Db|-10---10---10--------12---10-12-9--10-9~-----------------------|
Ab|---------------------------------------------------------------|
Eb|---------------------------------------------------------------|

Eb|---------------------------------------------------------------|
Bb|---------------------------------------------------------------|
Gb|---------------------------------------------------------------|
Db|-----------3-----2-3-0-2---0---------------2----0---1-2--------|
Ab|-5----6------------------3---2--3-2~----------------------3----|
Eb|---------------------------------------------------------------|

Eb|----------------------|
Bb|-10--------10---12----|
Gb|------12--------------|
Db|----------------------|
Ab|----------------------|
Eb|----------------------|

Eb|----------------------|
Bb|----------------9-----|
Gb|-8----9----11---------|
Db|----------------------|
Ab|----------------------|
Eb|----------------------|

Eb|----------------------|
Bb|----------------------|
Gb|----------------------|
Db|------2----4----6-----|
Ab|-2--------------------|
Eb|----------------------|

 [Chorus]
Eb|---------------------------------------------------|
Bb|---------------------------------------------------|
Gb|------7--------------------------------------------|
Db|-7----7--------------------------------------11----|
Ab|-7----5-------------5~--3--2--0----2----0----------|
Eb|-5---------3--2--0---------------------------------|

Eb|---------------------------------------------------|
Bb|---------------------------------------------------|
Gb|-9----7-----------------------5----7----9----9-----|
Db|-9----7--------------------------------------------|
Ab|-7----5-------------5~--3--2-----------------------|
Eb|-----------3--2--0---------------------------------|

Eb|--------------------------------------------------|
Bb|--------------------------------------------------|
Gb|------7-------------------------------------------|
Db|-7----7-------------------------------------------|
Ab|-7----5----------------------4--3----2----5-------|
Eb|-5---------3--2--0--4-4-4-5-----------------------|
                      PMPMPM
Eb|--------------------------------------------------|
Bb|--------------------------------------------------|
Gb|-9----7-------------------------9----7----7-------|
Db|-9----7-------------------------------------------|
Ab|-7----5----------------------4--------------------|
Eb|-----------3--2--0--4-4-4-5-----------------------|
                      PMPMPM

 [Guitar Solo]
Eb|--------------------------------------------------------------7----9-|
Bb|--------------------------------------7--------------7---10-8---10---|
Gb|-----------------------------7--6--------9--7--6--7----7-------------|
Db|------PH---7--5-----9--7-----------8---------------------------------|
Ab|-5----5~---------7--------9------------------------------------------|
Eb|---------------------------------------------------------------------|

Eb|-12-11-12--12-13-13-14-14-12-11-12-13-13-14-14-15-13-13-13-14-15--|
Bb|------------------------------------------------------------------|
Gb|------------------------------------------------------------------|
Db|------------------------------------------------------------------|
Ab|------------------------------------------------------------------|
Eb|------------------------------------------------------------------|

Eb|-15-16-16-16-15-16-16-16-15-16-16-16-16-16-16-16-17-17-17-17-17-18-18-|
Bb|----------------------------------------------------------------------|
Gb|----------------------------------------------------------------------|
Db|----------------------------------------------------------------------|
Ab|----------------------------------------------------------------------|
Eb|----------------------------------------------------------------------|

Eb|-21bh/---\-19--21b1.5/---\-21~--18------------20bh/~--|
Bb|------------------------------------20--17/18---------|
Gb|-----------------------------------------bar----------|
Db|------------------------------------------------------|
Ab|------------------------------------------------------|
Eb|------------------------------------------------------|

Eb|----------------------------------------------------------------|
Bb|-18b1/---\-----17bh/--\-15~-------------------------------------|
Gb|-----------15----------------13bh/-\-12-13-12-11-10-/11-/11-/11-|
Db|----------------------------------------------------------------|
Ab|----------------------------------------------------------------|
Eb|----------------------------------------------------------------|
 
Eb|-------------------------------------15-------------|
Bb|-15-12-------------------------------------14bh-----|
Gb|-------14-11-------------------------------------|
Db|-------------16\14-12~---/12~-----------------------|
Ab|----------------------------------------------------|
Eb|----------------------------------------------------|
                                                     
Eb|----------12-------------------------------------------------------|
Bb|--14p12---------13----------------14--14-12--12--------------------|
Gb|-------------14----14-11-h\h/~----------------------14/15~---\14~--|
Db|------------------------------------------------14-----------------|
Ab|-------------------------------------------------------------------|
Eb|-------------------------------------------------------------------|

  Guitar at CD time 3'20"
Eb|----------------------|
Bb|----------------------|
Gb|----------------------|
Db|-4-5-2-4---2----------|
Ab|---------5---4--0-2~--|
Eb|----------------------|

 [Last Pre-Chorus]
Eb|----------------------------------------------|
Bb|-----------10--10-12--13-12--------10---12----|
Gb|-11---12----------------------12--------------|
Db|----------------------------------------------|
Ab|----------------------------------------------|
Eb|----------------------------------------------|

Eb|----------------------------------------------|
Bb|----------------------11-10--------------9----|
Gb|-8----9----11--11-12----------9----11---------|
Db|----------------------------------------------|
Ab|----------------------------------------------|
Eb|----------------------------------------------|

Eb|----------------------------------------------|
Bb|----------------------------------------------|
Gb|----------------------------------------------|
Db|------2----0---1--2---2--1----2----4-----6----|
Ab|-2--------------------------------------------|
Eb|----------------------------------------------|

 [Chorus]
Eb|---------------------------------------------------|
Bb|---------------------------------------------------|
Gb|------7--------------------------------------------|
Db|-7----7--------------------------------------11----|
Ab|-7----5-------------5~--3--2--0----2----0----------|
Eb|-5---------3--2--0---------------------------------|

Eb|---------------------------------------------------|
Bb|---------------------------------------------------|
Gb|-9----7-----------------------5----7----9----9-----|
Db|-9----7--------------------------------------------|
Ab|-7----5-------------5~--3--2-----------------------|
Eb|-----------3--2--0---------------------------------|

Eb|--------------------------------------------------|
Bb|--------------------------------------------------|
Gb|------7-------------------------------------------|
Db|-7----7-------------------------------------------|
Ab|-7----5----------------------4--3----2----5-------|
Eb|-5---------3--2--0--4-4-4-5-----------------------|
                      PMPMPM
Eb|--------------------------------------------------|
Bb|--------------------------------------------------|
Gb|-9----7-------------------------9----7----7-------|
Db|-9----7-------------------------------------------|
Ab|-7----5----------------------4--------------------|
Eb|-----------3--2--0--4-4-4-5-----------------------|
                      PMPMPM            
Submit corrections


         lessons Hard to play? Try these video lessons and learn fast  lessons
        
↑ Back to top | Tablatures and chords for acoustic guitar and electric guitar, ukulele, drums are parodies/interpretations of the original songs. You may use it for private study, scholarship, research or language learning purposes only