» » »

Tnt - Tabs

Artists:  A B C D E F G H I J K L M N O P Q R S T U V W X Y Z # 

Tabs

(ver. 1) Click to play this song!
Tnt
 Rating:
4.3/5 (21 vote)

  lessons Tabs too difficult? Try these video lessons and learn fast
 
                [Chorus] - CD Time (1'11")
Eb|------------------------------------------------9---\-------|
Bb|-6------------4-----------------------9---------9---\-------|
Gb|-5-------3----3-----------------------8---------6---\--8----|
Db|-3-------3----1-----------------------6----8-----------8----|
Ab|------xx-1----------------------8-8--------8-----------6----|
Eb|-------------------4--6-4-3~---------------6----------------|
                        PM--|     PM--|
Eb|------------------------------------------|
Bb|--------PH--PH------------16~--\----------|
Gb|---------8~--7~--6~-------17~--\-----8----|
Db|-------------------------------------8----|
Ab|-8~--7~--6~--5~--4~------------------6----|
Eb|------------------------------------------|

  [2nd Chorus] - CD Time (2'13")
Eb|----------------------------------------------------9---\-------|
Bb|-6------------4---------------------------9---------9---\-------|
Gb|-5-------3----3---------------------------8---------6---\--8----|
Db|-3-------3----1---------------------------6----------------8----|
Ab|------xx-1----------------------8---8-8-8------------------6----|
Eb|-------------------4--6-4-3~-------------------6----------------|
                        PM--|         PM----| 
Eb|----------------------------------|
Bb|--------PH--PH--------------------|
Gb|---------8~--7~--6~-------8-8-8---|
Db|--------------------------8-6-8---|
Ab|-8~--7~--6~--5~--4~-------6-6-6---|
Eb|----------------------------------|

 [Guitar Solo]
Eb|-----------------11-11------------------------------------------|
Bb|------8-9--\----------------------13----------------------------|
Gb|----8------------10-10---10-12-13-------------------------------|
Db|-10-----------------------------------14--10--8--5~-------------|
Ab|----------------------------------------------------------------|
Eb|----------------------------------------------------------------|
    PM----|                                  PM------|
Eb|-16-15-16-20--18--16-----------------------|
Bb|----------------------16~---18--20-20/21~--|
Gb|-------------------------------------------|
Db|-------------------------------------------|
Ab|-------------------------------------------|
Eb|-------------------------------------------|

Eb|----------16--15--13-----------------------|
Bb|-16-15-16-------------13~---14--16-16/18~--|
Gb|-------------------------------------------|
Db|-------------------------------------------|
Ab|-------------------------------------------|
Eb|-------------------------------------------|

  (I'm not sure if this line is right...)
Eb|-------------------------------------------------------------------------|
Bb|-11h13-13-13----13----13----13----13----13----13----13----13----13----13-|
Gb|-------------13----10----13----12----13----12----10----13----12----10----|
Db|-------------------------------------------------------------------------|
Ab|-------------------------------------------------------------------------|
Eb|-------------------------------------------------------------------------|

Eb|--------------16-------------------------------------15-16---21b1/~---|
Bb|-8^9--8------x----16------16b1/~---16b1/\p13~-------------------------|
Gb|-9^10-9-----x---------13--------------------w/ arm--------------------|
Db|----------------------------------------------------------------------|
Ab|----------------------------------------------------------------------|
Eb|----------------------------------------------------------------------|

        |-> With arm    
Eb|-18-20-18---------------------------------------|
Bb|----------20-20-20-16-16-16---------------------|
Gb|----------------------------17-17-17-15-17-13~--|
Db|------------------------------------------------|
Ab|------------------------------------------------|
Eb|------------------------------------------------|

Eb|-15-16-15---------------------------------------|
Bb|----------16-16-16-13-13-13---------------------|
Gb|----------------------------13-13-13-12-13------|
Db|-------------------------------------------13~--|
Ab|------------------------------------------------|
Eb|------------------------------------------------|

Eb|-----------9---\------------------------------------------9---\--|
Bb|-9---------9---\--------------------------------9---------9---\--|
Gb|-8---------6---\--8-----------------------------8---------6---\--|
Db|-6----------------8-----------------------------6----------------|
Ab|------------------6------------------8---8-8-8-------------------|
Eb|------6----------------4--6-4-3~---------------------6-----------|
                            PM--|          PM----|

Eb|-------------------------------------------9----|
Bb|---------------------------------9---------9----|
Gb|-8-------------------------------8---------6----|
Db|-8-------------------------------6--------------|
Ab|-6------------------8---8-8-8-8-----------------|
Eb|------4--6-4-3~-----------------------6---------|
           pm--|          PM------|
Eb|-----------------------------------------------9----|
Bb|-----------------------------------9---\-------9----|
Gb|-8---------------------------------8---\-------6----|
Db|-8---------------------------------6---\------------|
Ab|-6--------------------------------------------------|
Eb|------4--6-4-3-4-6-3-1---1-1-1-1-----------6--------|
                            PM-----            
Submit corrections


         lessons Hard to play? Try these video lessons and learn fast  lessons
        
↑ Back to top | Tablatures and chords for acoustic guitar and electric guitar, ukulele, drums are parodies/interpretations of the original songs. You may use it for private study, scholarship, research or language learning purposes only