» » »

Tnt - Tabs

Artists:  A B C D E F G H I J K L M N O P Q R S T U V W X Y Z # 

Tabs

(ver. 1) Click to play this song!
Tnt
 Rating:
4.3/5 (9 votes)

  lessons Tabs too difficult? Try these video lessons and learn fast
 
                [Intro] (Palm mute on 6th string)
E|----------------------------------------------------------------------|
B|----------------------------------------------------------------------|
G|--------6---8-9---6---8---9------7-6-----9---9-8---6---9---8---9-9----|
D|--------7---9-6---7---9---6------7-7-----6---6-9---7---6---4---6-6----|
A|-x\-------------------------------------------------------------------|
E|----0-0---0-----0---0---0---0-00-----0-0---0-----0---0---0---0--------|

E|--------------------------------------12--12-11--9-9-7---7---5-5-5---4---4-|
B|--------------------------------------9---9--7---7-5-5---3---3-1-1---0---0-|
G|-----6---8-9---6---8---9------7-6------------------------------------------|
D|-----7---9-6---7---9---6------7-7------------------------------------------|
A|---------------------------------------------------------------------------|
E|-0-----0-----0---0---0---0-00-----0-0--------------------------------------|

[Verse]
  -           x3            -
E|--------------------------------------------------------------|
B|-5-5---5-xx-5---7-7---7-xx-5---xx-----------------------------|
G|-4-4---4-xx-4---6-6---6-xx-4---xx-----------------------------|
D|--------------------------------------------0---0h2p0---------|
A|-------------------------------------------------------4------|
E|----------------------------------2---0~------------------3---|

[Pre-Chorus]
E|--------------------------------------------------------|
B|-5-5---xxx-5---7-7---xxx-5---5-5---xxx-5---7-7---xxx-5--|
G|-4-4---xxx-4---6-6---xxx-4---4-4---xxx-4---6-6---xxx-4--|
D|--------------------------------------------------------|
A|--------------------------------------------------------|
E|--------------------------------------------------------|

[Clean tone arpeggio]
E|-------0---------------------------0-------------0------|
B|-----4---------------------------4-------------4--------|
G|---2---------------------------2-------------4----------|
D|--------------------------------------------------------|
A|--------------------------------------------------------|
E|--------------------------------------------------------|

E|--------------------------------------------------|
B|-5-5---xxx-5---7-7---xxx-5--5---4--2--2-----------|
G|-4-4---xxx-4---6-6---xxx-4--4---4--2--2-----------|
D|--------------------------------------------------|
A|--------------------------------------------------|
E|--------------------------------------------------|

   [Clean tone arpeggio]
E|-------0-------------0----------------------------|
B|-----4-------------4------------------------------|
G|---2-------------4--------------------------------|
D|--------------------------------------------------|
A|--------------------------------------------------|
E|--------------------------------------------------|

[Chorus]
E|--------------------------------------------------------------------|
B|--------------------------------------------------------------------|
G|------6---8-9---6---8---9------7-6-----9---9-8---6---9---8---9-9----|
D|------7---9-6---7---9---6------7-7-----6---6-9---7---6---4---6-6----|
A|--------------------------------------------------------------------|
E|--0-0---0-----0---0---0---0-00-----0-0---0-----0---0---0---0--------|

E|--------------------------------------------------------------------|
B|--------------------------------------------------------------------|
G|-----6---8-9---6---8---9------7-6-----9---9-8---6----4--------------|
D|-----7---9-6---7---9---6------7-7-----6---6-9---7----6--------------|
A|--------------------------------------------------------------------|
E|--0----0-----0---0---0---0-00-----0-0---0-----0-----------2----4----|

[Verse]
  -           x3            -
E|--------------------------------------------------------------|
B|-5-5---5-xx-5---7-7---7-xx-5---xx-----------------------------|
G|-4-4---4-xx-4---6-6---6-xx-4---xx-----------------------------|
D|--------------------------------------------0---0h2p0---------|
A|-------------------------------------------------------4------|
E|----------------------------------2---0~------------------3---|

[Pre-Chorus]
E|--------------------------------------------------------|
B|-5-5---xxx-5---7-7---xxx-5---5-5---xxx-5---7-7---xxx-5--|
G|-4-4---xxx-4---6-6---xxx-4---4-4---xxx-4---6-6---xxx-4--|
D|--------------------------------------------------------|
A|--------------------------------------------------------|
E|--------------------------------------------------------|

[Chorus]
E|--------------------------------------------------------------------|
B|--------------------------------------------------------------------|
G|------6---8-9---6---8---9------7-6-----9---9-8---6---9---8---9-9----|
D|------7---9-6---7---9---6------7-7-----6---6-9---7---6---4---6-6----|
A|--------------------------------------------------------------------|
E|--0-0---0-----0---0---0---0-00-----0-0---0-----0---0---0---0--------|

E|--------------------------------------------------------------------|
B|--------------------------------------------------------------------|
G|-----6---8-9---6---8---9------7-6-----9---9-8---6----4--------------|
D|-----7---9-6---7---9---6------7-7-----6---6-9---7----6--------------|
A|--------------------------------------------------------------------|
E|--0----0-----0---0---0---0-00-----0-0---0-----0-----------2----4----|

[Chorus]
E|--------------------------------------------------------------------|
B|--------------------------------------------------------------------|
G|------6---8-9---6---8---9------7-6-----9---9-8---6---9---8---9-9----|
D|------7---9-6---7---9---6------7-7-----6---6-9---7---6---4---6-6----|
A|--------------------------------------------------------------------|
E|--0-0---0-----0---0---0---0-00-----0-0---0-----0---0---0---0--------|

E|--------------------------------------------------------------------|
B|--------------------------------------------------------------------|
G|-----6---8-9---6---8---9------7-6-----9---9-8---6----4--------------|
D|-----7---9-6---7---9---6------7-7-----6---6-9---7----6--------------|
A|--------------------------------------------------------------------|
E|--0----0-----0---0---0---0-00-----0-0---0-----0-----------2----4----|

[Guitar solo]
      Push wammy bar                 
E|-----------------------------------------------------------------|
B|-14h15h17-17---15-14-------------------------14h15h17-17---15p14-|
G|---------------------14-----14-16-18-----------------------------|
D|---------------------------------------14~-----------------------|
A|-----------------------------------------------------------------|
E|-----------------------------------------------------------------|
                             pmpmpmpmpmpm
E|-17b1/\--------------17~-------------------------19------19--17--16h17p16-----|
B|--------17b1/\-14b/\----------------------------x-------------------------19~-|
G|-----------------------------------------------x------------------------------|
D|------------------------------------------------------------------------------|
A|---------------------------2^4--------------4~--------------------------------|
E|-----------------------------------0--3--2------------------------------------|
                            pmpmpmpmpmpmpmpmpm
E|---------------------------------------------------------------------------|
B|-17-15-14----14-15-17------------------------------------------------------|
G|----------16---------------16-14-13----13-14-16----------------------------|
D|------------------------------------16----------------------------------4~-|
A|---------------------------------------------------------------------------|
E|---------------------------------------------------------------------------|

[Chorus]
E|--------------------------------------------------------------------|
B|--------------------------------------------------------------------|
G|------6---8-9---6---8---9------7-6-----9---9-8---6---9---8---9-9----|
D|------7---9-6---7---9---6------7-7-----6---6-9---7---6---4---6-6----|
A|--------------------------------------------------------------------|
E|--0-0---0-----0---0---0---0-00-----0-0---0-----0---0---0---0--------|

E|--------------------------------------------------------------------|
B|--------------------------------------------------------------------|
G|-----6---8-9---6---8---9------7-6-----9---9-8---6----4--------------|
D|-----7---9-6---7---9---6------7-7-----6---6-9---7----6--------------|
A|--------------------------------------------------------------------|
E|--0----0-----0---0---0---0-00-----0-0---0-----0-----------2----4----|
            
Submit corrections


         lessons Hard to play? Try these video lessons and learn fast  lessons
        
↑ Back to top | Tablatures and chords for acoustic guitar and electric guitar, ukulele, drums are parodies/interpretations of the original songs. You may use it for private study, scholarship, research or language learning purposes only