» » »

Tnt - Tabs

Artists:  A B C D E F G H I J K L M N O P Q R S T U V W X Y Z # 

Tabs

(ver. 1) Click to play this song!
Tnt
 Rating:
4.4/5 (11 votes)

  lessons Tabs too difficult? Try these video lessons and learn fast
 
                [Intro] (0:30)
Eb|----------------------9---10--9------9-----------------------12b1/-------|
Bb|-10---12--10-9---10-------------12-------10---12--10-9---10---------10---|
Gb|-------------------------------------------------------------------------|
Db|-------------------------------------------------------------------------|
Ab|-------------------------------------------------------------------------|
Eb|-------------------------------------------------------------------------|
  
Eb|-------------------------------------------------------------------------|
Bb|-------------------------------------------------------------------------|
Gb|--2---------------2---2----7-----9---6---------7-----9---------------7---|
Db|--2----2-----2----2---2----7-----9---7---------7-----9---------------7---|
Ab|--0----2-----2----0---0----5-----7---4---------5-----7---------------5---|
Eb|-------0---0-0----------------------------2~--------------1~--2~---------|
           PM

Eb|----------------------------------9---10--9------9---------------------------|
Bb|-9---10-12-10---12---10--9---10-------------12-------10---7h10p7\---5----7~--|
Gb|-----------------------------------------------------------------------------|
Db|-----------------------------------------------------------------------------|
Ab|-----------------------------------------------------------------------------|
Eb|-----------------------------------------------------------------------------|

Eb|-----------------------------------------------------------------------------|
Bb|--------------------------------------------------------------------8--------|
Gb|------------2----9-------9-------------7-----9--------7-------------9----2---|
Db|------------2----9-------9-------------7-----9--------7-------------9----2---|
Ab|------------0----7-------7-------------5-----7--------5-------------7----0---|
Eb|-4----------------------------5-4-2~-------------2~--------------------------|            
Submit corrections


         lessons Hard to play? Try these video lessons and learn fast  lessons
        
↑ Back to top | Tablatures and chords for acoustic guitar and electric guitar, ukulele, drums are parodies/interpretations of the original songs. You may use it for private study, scholarship, research or language learning purposes only