» » »

Tim Christensen - Love Is A Matter Of.. Tabs

Artists:  A B C D E F G H I J K L M N O P Q R S T U V W X Y Z # 

Love Is A Matter Of.. Tabs

(ver. 2) Click to play this song!
Tim Christensen
 Rating:
4/5 (4 votes)

 Love Is A Matter Of.. lessons Tabs too difficult? Try these video lessons and learn fast
 
                Tim Christensen / Love Is A Matter Of...
      



Capo in 2. fret

Chords Used:

Intro:           	Verse:			Chorus:			Solo: 
			
G        : 320003	G        : 320003	Cmaj7    : x32000	Am7      : x02010	
Gsus     : 330013	D        : 000323	Hm or Bm : x24432	H7 or B7 : x32302
			Am7      : x02010	E        : 022100	Cmaj7    : x32000
			C        : x32010 	Am7      : x02010	Am       : x02210
			Gmaj7    : 320002	C	 : x32010	Gmaj7	 : 320002
			Gsus     : 330013	D	 : 000323
						G	 : 320003
						Gsus     : 330013



Intro.
---3-----3-----3-----3-----3--	--g--
---0-----0-----1-----1-----1--	--e--
---0-----0-----0-----0-----0--	--n--
---0-----0-----0-----0-----0--	--t--
---2-----2-----3-----3-----3--	--a--
---3-----3-----3-----3-----3--	--g--

Verse:
---3-----2p3p2-----0-----0-----0-----0-----2-----2-----3-----2p3p2-----0-----0-----0-----2-----3-----3-----3--	
---0-----3---------1-----1-----1-----1-----0-----0-----0-----3---------1-----1-----1-----3-----0-----1-----0--	
---0-----2---------0-----0-----0-----0-----0-----0-----0-----2---------0-----0-----0-----2-----0-----0-----0--	
---0-----0---------2-----2-----2-----2-----0-----0-----0-----0---------2-----2-----2-----0-----0-----0-----0--	
---2---------------0-----0-----3-----3-----2-----2-----2---------------0-----0-----3-----------2-----2-----2--	
---3---------------------------------------3-----3-----3---------------------------------------3-----3-----3--	

---3-----2p3p2-----0-----0-----0-----0-----2-----2-----3-----2p3p2-----0-----0-----0-----2-----3-----3-----3--	
---0-----3---------1-----1-----1-----1-----0-----0-----0-----3---------1-----1-----1-----3-----0-----1-----0--	
---0-----2---------2-----2-----0-----0-----0-----0-----0-----2---------2-----2-----0-----2-----0-----0-----0--	
---0-----0---------2-----2-----2-----2-----0-----0-----0-----0---------2-----2-----2-----0-----0-----0-----0--	
---2---------------0-----0-----3-----3-----2-----2-----2---------------0-----0-----3-----------2-----2-----2--	
---3---------------------------------------3-----3-----3---------------------------------------3-----3-----3--	

Chorus:
---0-----0-----0-----0-----2-----0-----0-----0-----2-----3-----3-----3
---0-----0-----0-----0-----3-----0-----1-----1-----3-----0-----1-----0
---0-----0-----0-----0-----4-----1-----0-----0-----2-----0-----0-----0
---2-----2-----2-----2-----4-----2-----2-----2-----0-----0-----0-----0
---3-----3-----3-----3-----2-----2-----0-----3-----------2-----2-----2
---------------------------------------------------------3-----3-----3

---3-----2p3p2-----0-----0-----0-----0-----2-----2-----3-----2p3p2-----0-----0-----0-----2-----3-----3-----3--	
---0-----3---------1-----1-----1-----1-----0-----0-----0-----3---------1-----1-----1-----3-----0-----1-----0--	
---0-----2---------2-----2-----0-----0-----0-----0-----0-----2---------2-----2-----0-----2-----0-----0-----0--	
---0-----0---------2-----2-----2-----2-----0-----0-----0-----0---------2-----2-----2-----4-----0-----0-----0--	
---2---------------0-----0-----3-----3-----2-----2-----2---------------0-----0-----3-----5-----2-----2-----2--	
---3---------------------------------------3-----3-----3---------------------------------------3-----3-----3--	


---0-----0-----0-----0-----2-----0-----0-----0-----2-----3-----3-----3
---0-----0-----0-----0-----3-----0-----1-----1-----3-----0-----1-----0
---0-----0-----0-----0-----4-----1-----0-----0-----2-----0-----0-----0
---2-----2-----2-----2-----4-----2-----2-----2-----0-----0-----0-----0
---3-----3-----3-----3-----2-----2-----0-----3-----------2-----2-----2
---------------------------------------------------------3-----3-----3


Solo.
-----------3-----------------5----------------5----5----5--------------------------------------------------------
---5---5-----5---5^7---7-----7---7^8---8----8----7---7----8---5---8---5---8---5---8---5---7---7--------

Chords in the solo-part:
---0-----0-----2-----2-----3-----3-----2-----2-----0-----0-----0-----2-----2--
---1-----1-----3-----3-----5-----5-----3-----3-----1-----1-----1-----0-----0--
---0-----0-----2-----2-----4-----4-----4-----4-----0-----0-----0-----0-----0--
---2-----2-----4-----4-----5-----5-----4-----4-----2-----2-----0-----0-----0--
---0-----0-----2-----2-----3-----3-----2-----2-----0-----0-----------2-----2--

---0-----0-----0-----0-----2-----0-----0-----0-----2-----3-----0-----0-----0-----2-----0-----3--
---0-----0-----0-----0-----3-----0-----1-----1-----3-----0-----0-----1-----1-----3-----1-----3--
---0-----0-----0-----0-----4-----1-----0-----0-----2-----0-----1-----0-----0-----2-----0-----0--
---2-----2-----2-----2-----4-----2-----2-----2-----0-----0-----2-----2-----2-----0-----2-----0--
---3-----3-----3-----3-----2-----2-----0-----3-----------2-----2-----0-----3-----------3-----2--
---------------------------------0-----------------------3-----0-----------------------------3--

Lyrics:

Love is a matter of difference
Between you
And me
Love is a matter of distance
But you are too far away

Love is a matter of growing
And knowing
True feelings
Love is a matter of showing
But you are so far away

When my heart is hoping
My mind is opening to find
That I can't let you stay
Though love is a matter of difference
You are too far away

Love is a matter of input
Outlook
Deep inside
Love is to know you're on my side
But you are so far away

When my heart is hoping
My mind is opening to find
That I can't let you stay
Though love is a matter of difference
You are too far away

When my heart is hoping
My mind is opening to find
That I can't let you stay
Though love is a matter of difference
You are too far away

If love is a matter of distance
You are too far away
            
Submit corrections


        Love Is A Matter Of.. lessons Hard to play? Try these video lessons and learn fast Love Is A Matter Of.. lessons
        
↑ Back to top | Tablatures and chords for acoustic guitar and electric guitar, ukulele, drums are parodies/interpretations of the original songs. You may use it for private study, scholarship, research or language learning purposes only