» » »

Tim Christensen - Get The F*** Out Of My Mind Tabs

Artists:  A B C D E F G H I J K L M N O P Q R S T U V W X Y Z # 

Get The F*** Out Of My Mind Tabs

(ver. 2) Click to play this song!
Tim Christensen
 Rating:
4/5 (4 votes)

 Get The F*** Out Of My Mind lessons Tabs too difficult? Try these video lessons and learn fast
 
                Intro
-----------------------------------g
-----------------------------------e
---4---4---3---3--2----2---3---n
-----4-------4-------4--------4--t
-----------------------------------a
-----------------------------------g

Verse
---4---4---3---3--2----2---3------4----4--3---3--2--2-----------------
-----4-------4-------4--------4-------4-------4-------------------------

1. part
---4---4---3---3--2----2---3-------4----4--6---6----7---7---6---6--n
-----4-------4-------4--------4--------5-------5------5---5---4---4---t

2. part
---4---4---3---3--2----2---3--------4----4--6-----6-----7---7---7-
-----4-------4-------4--------4---------5---------5-------8---8---8--

Chorus
Guitar.1 is playing 
---x-----x-----x-----x-----x---3-----3--g
---x-----x-----x-----x-----x---3-----3--e
---x-----x-----x-----x-----x---4-----4--n
---x-----x-----x-----x-----5---5-----5--t
---9-----9-----9-----9-----5---5-----5--a
---7-----7-----7-----7-----3---3-----3--g

---x-----x-----------------------------------x-----x-----x---3-----3-----x---5-----5-------12-
---x-----x-----------------------------------x-----x-----x---3-----3-----x---5-----5----7^14-
---x-----x-----------------------------------x-----x-----x---4-----4-----x---6-----6-----------
---x-----x------------------4---4---4------x-----x-----5---5-----5-----7---7-----7-----------
---7-----7------------------4---4---4------9-----9-----5---5-----5-----7---7-----7-----------
---5-----5---6^2--2---2---2---2---2------7-----7-----3---3-----3-----5---5-----5-----------






Guitar.2 is playing.
--------------------g----x---3-----3--g
--------------------e----x---3-----3--e
--------------------n----x---4-----4--n
---7----------------t----5---5-----5--t
---x---10--9---9--a----5---5-----5--a
---7----7--7---7--g----3---3-----3--g

This one is not what Tim plays, but it sounds cool	This one is the right one.
-------------------------------------	------------------------------------------------
-------------------------------------	------------------------------------------------
---6--7--9--7---6--7--9--6--7--9-	------------------------------------------------
---7--7--7--7--8--8--8--8--8--8-	------------------------------------------------
-------------------------------------	----4---5---7---5---4---5---7---4---5---7--
-------------------------------------	------------------------------------------------

--------------------g----x---3-----3-----x---5-----5------12-
--------------------e----x---3-----3-----x---5-----5---7^14-
--------------------n----x---4-----4-----x----6-----6----------
---7----------------t----5---5-----5-----7---7-----7----------
---x---10--9---9--a----5---5-----5-----7---7-----7----------
---7----7--7---7--g----3---3-----3-----5---5-----5----------

C-part
---5--5--5-----3-----5--5--5-----3-----5--5--5-----3----------------------------------------------------
---5--5--5-----3-----5--5--5-----3-----5--5--5-----3----------------------------------------------------
---6--6--6-----4-----6--6--6-----4-----6--6--6-----4-----------------------------------4---4---4---4--
---7--7--7-----5-----7--7--7-----5-----7--7--7-----5-----------------------------------4---4---4---4--
---7--7--7-----5-----7--7--7-----5-----7--7--7-----5------------5---5---4---5---4----2---2---2---2--
---5--5--5-----3-----5--5--5-----3-----5--5--5-----3-----3---5------------------------------------------

Solo goes over verse. (with wah-wah)
---4---4---3---3--2----2---3------4------4--3---3--2--2--
-----4-------4-------4----------4-------4-------4------------

---4---4---3---3--2----2---3-----4----4--6---6----7---7---6s4---6---6--
-----4-------4-------4--------4------5-------5------5---5----------4---4--

---4---4---3---3--2----2---3-----------9s11--11--11--9--11--9--7--9--9s11--11--11--9--11--9--7---
-----4-------4-------4----------4-------------------------------------------------------------------------------






------------------------------------------------------------7--------------------6-------9^10---
----------------------------------------------------7----------10---7-------6------6------------
---4---4---3---3--2----2---3------------7---9-------------------------7-----------------------
-----4-------4-------4----------4-----9-------------9-------------------------------------------

In the last chorus he plays this: (with wah wah.)
---------------------------------------
---------------------------------------
---7---9---7---9^10---9---7---9---
---------------------------------------
---------------------------------------
---------------------------------------


Ending after chorus.
---x---3-----3-----x---5-----5---x---x---x---0--
---x---3-----3-----x---5-----5---x---x---x---0--
---x---4-----4-----x---6-----6---x---x---x---4--
---5---5-----5-----7---7-----7---7---5---7---4--
---5---5-----5-----7---7-----7---7---5---7---2--
---3---3-----3-----5---5-----5---5---3---5---x--

----------------------------g-----------------------------------------------------0--
----------------------------e-----------------------------------------------------0--
---4----2-----1---2---4--n----4-----6--4---6^7--9---7--6--2--------2------4--
------4----4----4---4-----t-------4--------------------------------4--2----0---4--
----------------------------a-----------------------------------------------------2--
----------------------------g-----------------------------------------------------x--

Chords:

Vers:  H-H-D-G-A#--

Chorus:  H-H-G-H-H-G-A-F#-H-H-G-A-

Bridge:  A-G-A-G-H
            
Submit corrections


        Get The F*** Out Of My Mind lessons Hard to play? Try these video lessons and learn fast Get The F*** Out Of My Mind lessons
        
↑ Back to top | Tablatures and chords for acoustic guitar and electric guitar, ukulele, drums are parodies/interpretations of the original songs. You may use it for private study, scholarship, research or language learning purposes only