» » »

Tim Christensen - 21st Century High Tabs

Artists:  A B C D E F G H I J K L M N O P Q R S T U V W X Y Z # 

21st Century High Tabs

(ver. 2) Click to play this song!
Tim Christensen
 Rating:
4/5 (4 votes)

 21st Century High lessons Tabs too difficult? Try these video lessons and learn fast
 
                main riff                                chorus

|-------------------||--------|---||---------|---|---------------|-----
|------------------*||--------|---||---------|---|---------------|-----
|-2-----------------||--------|---||---------|-%-|-4-4-4-4-4-4-4-|-6-6-
|-4h2-2-2-4--2------||-5~-5-5-|-4-||-7-7-7-6-|---|-4-4-4-4-4-4-4-|-6-6-
|-----4---0--0-0-0-*||--------|---||-7-7-7-7-|---|-6-6-6-6-6-6-6-|-8-8-
|-----5--------5-5--||-6~-6-6-|-5-||---------|---|-7-7-7-7-7-7-7-|-9-9-




                "21st century..."
|-------------|-----------||-
|-------------|-6---2-----||-
|-6-6-6-6-6-6-|-6---2-----||-9(2. time)
|-6-6-6-6-6-6-|-8---3---4-||-9
|-8-8-8-8-8-8-|-9---4---4-||-7
|-9-9-9-9-9-9-|---------2-||-
            
Submit corrections


        21st Century High lessons Hard to play? Try these video lessons and learn fast 21st Century High lessons
        
↑ Back to top | Tablatures and chords for acoustic guitar and electric guitar, ukulele, drums are parodies/interpretations of the original songs. You may use it for private study, scholarship, research or language learning purposes only