Home » T » Timber Timbre »

Timber Timbre - This Low Commotion Chords

Artists:  A B C D E F G H I J K L M N O P Q R S T U V W X Y Z # 

This Low Commotion Chords

(Version #1)
Timber Timbre
Intro (live)

e|--------------------------------------------------------------|
B|------------5---------------4--------------3-------------2----|
G|-------4--------------5--------------4--------------3---------|
D|--5-------------4---------------3--------------2--------------|
A|--------------------------------------------------------------|
E|--------------------------------------------------------------|
                                                                     
e|--------------------------------------------------------------|
B|------------1---------------0---------------------------------|
G|-------2--------------0--------------------2--------------0---|
D|--2-------------2---------------------1--------------2--------|
A|---------------------------------2-------------2--------------|
E|--------------------------------------------------------------|    X2

G                       Am      Em
What does it mean to be unhealthy badly my love?
G          Am      Em
To be in a bad state so well
G                     Am       Em
What does it mean to face desire so sadly?
G         Am              Cmaj/G
To beg at the empty well

Em       D        G   Cmaj/G
Residual images hover above
Am          C         G                B7
I'm just a dog, a machine for your love
Em            D              G            Cmaj/G
To know every man, every place that you've been
Am             C             G      B7           
You turned me on, then you turned on me

            Em     B7  
This low commotion
            G      Cmaj/G   (X2)
This low commotion          
         Em    B7    G     Cmaj/G
Is going down, down, down, down
           Em      B7
This low commotion
           G       Cmaj/G
This low commotion
            Intro X2
This low commotion

G               Am    Em
America weren't you a miracle?
G          Am         Em
A fleeting chance in whole
G             Am      Em
But this low, low, low commotion
G                   Am        Cmaj/G
Would not leave our paridise alone

G          Am     Em         
And my two hands landed
G        Am          Em
Like two spiders on your knee
G             Am           Em
And one right ring finger branded
G           Am        Cmaj/G
But two lefts for two brands to please

Em       D        G     Cmaj/G
Residual images hover above
  Am     C      G               B7
I'm just dog, a machine for your love
Em                D          G                Cmaj/G
But to know every man, every face that you've seen
     Am            C            G         B7
Baby you turned me on, then you turned on me

           Em      B7
This low commotion  
          G       Cmaj/G     (X2)
This low commotion      
           Em               B7             G              Cmaj/G
This low commotion is going down, is going down, is going down, 
          Em            B7             G              Cmaj/G
Is going down, is going down, is going down, is going down,
         Em       B7
Your low commotion
          G      Cmaj/G
Your low commotion       (x2)
         
Intro !            
Submit corrections

↑ Back to top | Tablatures and chords for acoustic guitar and electric guitar, ukulele, drums are parodies/interpretations of the original songs. You may use it for private study, scholarship, research or language learning purposes only