» » »

Tim Armstrong - Wake Up Tabs

Artists:  A B C D E F G H I J K L M N O P Q R S T U V W X Y Z # 

Wake Up Tabs

(ver. 1) Click to play this song!
Tim Armstrong
 Rating:
4.5/5 (8 votes)

 Wake Up lessons Tabs too difficult? Try these video lessons and learn fast
 
                -------------------------------------------------------------------------------
-------------------------------------------------------------------------------
Tuning:Standard

Guitar 1
INTRO
e|-5----1----3----3---------------------------------------------------------|
B|-5----1----5----3---------------------------------------------------------|
G|-5----2----5----4---------------------------------------------------------|
D|-7----3----5----5---------------------------------------------------------|
A|-7----3----3----5---------------------------------------------------------|
E|-5----1---------3---------------------------------------------------------|

CHORUS
e|-3----1----3----1----3----1----3------------------------------------------|
B|-5----1----5----1----5----1----3------------------------------------------|
G|-5----2----5----2----5----2----4------------------------------------------|
D|-5----3----5----3----5----3----5------------------------------------------|
A|-3----3----3----3----3----3----5------------------------------------------|
E|------1---------1---------1----3------------------------------------------|

VERSE
e|-1----3----1----3----1----3----3------------------------------------|
B|-1----5----1----5----1----5----3------------------------------------|
G|-2----5----2----5----2----5----4------------------------------------|
D|-3----5----3----5----3----5----5------------------------------------|
A|-3----3----3----3----3----3----5------------------------------------|
E|-1---------1---------1---------3------------------------------------|

END CHORD
e|-3--------------------------------------------|
B|-5--------------------------------------------|
G|-5--------------------------------------------|
D|-5--------------------------------------------|
A|-3--------------------------------------------|
E|----------------------------------------------|

Order:INTRO X2
      CHORUS X2
      VERSE X2
      CHORUS X2
      VERSE X2
      CHORUS X2
      INTRO X2
      CHORUS X2
      VERSE X2
      END CHORD
            
Submit corrections


        Wake Up lessons Hard to play? Try these video lessons and learn fast Wake Up lessons
        
↑ Back to top | Tablatures and chords for acoustic guitar and electric guitar, ukulele, drums are parodies/interpretations of the original songs. You may use it for private study, scholarship, research or language learning purposes only