» » »

Tilt - O Jaki Dziwny Dziwny Dziwny Tabs

Artists:  A B C D E F G H I J K L M N O P Q R S T U V W X Y Z # 

O Jaki Dziwny Dziwny Dziwny Tabs

(ver. 1) Click to play this song!
Tilt
 Rating:
4/5 (4 votes)
                Riff 1

||---------------------||
||---------------------||
||---------------------||
||--5--5--4------------||
||--3--3--2---2-2-2-2--||
||------------0-0-0-0--||

Riff 2

||--------------------------------------------------||
||--------------------------------------------------||
||--------------------------------------------------||
||--7--7-7-7-7--7--7-7-7-7--9--9-9-9-9--9--9-9-9-9--||
||--5--5-5-5-5--5--5-5-5-5--7--7-7-7-7--7--7-7-7-7--||
||--------------------------------------------------||

||--------------------------------------------------||
||--------------------------------------------------||
||--------------------------------------------------||
||--7--7-7-7-7--7--7-7-7-7--9--9-9-9-9--9--9-9-9-9--||
||--5--5-5-5-5--5--5-5-5-5--7--7-7-7-7--7--7-7-7-7--||
||--------------------------------------------------||

||--------------------------------------------------||
||--------------------------------------------------||
||--------------------------------------------------||
||--7--7-7-7-7--7--7-7-7-7--4--4-4-4-4--4--4-4-4-4--||
||--5--5-5-5-5--5--5-5-5-5--2--2-2-2-2--2--2-2-2-2--||
||--------------------------------------------------||

||--------------------------||
||--------------------------||
||--------------------------||
||--5-----------4-----------||
||--3-----------2-----------||
||--------------------------||
            
Submit corrections

↑ Back to top | Tablatures and chords for acoustic guitar and electric guitar, ukulele, drums are parodies/interpretations of the original songs. You may use it for private study, scholarship, research or language learning purposes only