Home » T » Tierra Santa »

Tierra Santa - Cancion Del Pirata Ii Tabs

Artists:  A B C D E F G H I J K L M N O P Q R S T U V W X Y Z # 

Cancion Del Pirata Ii Tabs

(ver. 1) Click to play this song!
Tierra Santa
 Rating:
4/5 (4 votes)
                Tierra Santa - Cancion del pirata II


/   = Slide
PM  = Palm Mute
~   = Vibrato
b() = Bend
r   = Release

Intro
e|-----------------------------------------------------------------------|
B|---------6----------------6----------------6----------------6----------|
G|-----7-----7---7------7-----7---7------7-----7---7------7-----7---7----|
D|---7---7-----7------7---7-----7------7---7-----7------7---7-----7------|
A|-5----------------5----------------5----------------5------------------|
E|-----------------------------------------------------------------------|

First solo (acustic)
e|-----------------------------------------------------------------------|
B|-----------5-6-3/5----------6--8-6-5---------3/5----5/6-5--6-8-6-5-----|
G|-//7---5-7---------7--7/9-------------7-5-7------3-----------------7-5-|
D|-----------------------------------------------------------------------|
A|-----------------------------------------------------------------------|
E|-----------------------------------------------------------------------|

e|---------------------------------------------------------------|
B|--------------------------5-6-5--------------------------------|
G|-9/10--9-10-9--7-5-7--5-7-------7-5-3--3-3/5--3-2--7-7/9---7---|
D|---------------------------------------------------------------|
A|---------------------------------------------------------------|
E|---------------------------------------------------------------|

Riff during the solo
e|------------------------------------------------------------------------|
B|----------6----------------3----------------5----------------2----------|
G|*-----7-----7---7------3-----3---3------5-----5---5------2-----2---2---*|
D|*---7---7-----7------3---3-----3------5---5-----5------2---2-----2-----*|
A|--5----------------1----------------3----------------0------------------|
E|------------------------------------------------------------------------|

e|--------------------------------------------------------------------|
B|---------3----------------5----------------6----------------6-------|
G|-----3-----3---3------5-----5---5------7-----7---7------7-----7---7-|
D|---3---3-----3------5---5-----5------7---7-----7------7---7-----7---|
A|-1----------------3----------------5----------------5---------------|
E|--------------------------------------------------------------------|

e|----------------------------------------------------0--|
B|---------3----------------5----------------2--------2--|
G|-----3-----3---3------5-----5---5------2-----2---2--2--|
D|---3---3-----3------5---5-----5------2---2-----2----2--|
A|-1----------------3----------------0----------------0--|
E|-------------------------------------------------------|

Riff 1 x8
e|--------------------------------------------------------------------|
B|---------6----------------3----------------5----------------2-------|
G|-----7-----7---7------3-----3---3------5-----5---5------2-----2---2-|
D|---7---7-----7------3---3-----3------5---5-----5------2---2-----2---|
A|-5----------------1----------------3----------------0---------------|
E|--------------------------------------------------------------------|

Second Solo (acustic)
e|--------------------------------------------------------------------------|
B|-----------5-6-3/5----------6--8-6-5---------3/5----5/6-5--6-8-6-5--------|
G|-//7---5-7---------7--7/9-------------7-5-7-------3-----------------7-5-7-|
D|--------------------------------------------------------------------------|
A|--------------------------------------------------------------------------|
E|--------------------------------------------------------------------------|

riff during the second solo
e|----------------------------------------------------------------------|
B|----------6----------------3----------------5----------------2--------|
G|*-----7-----7---7------3-----3---3------5-----5---5------2-----2---2-*|
D|*---7---7-----7------3---3-----3------5---5-----5------2---2-----2---*|
A|--5----------------1----------------3----------------0----------------|
E|----------------------------------------------------------------------|

Riff 1 x2

Riff 2                                          x3
e|-----------------------------------------------|
B|-----------------------------------------------|
G|---------7----------5----------3-------2--3--5-|
D|---------7----------5----------3-------2--3--5-|
A|-5-5-5-5-5--3-3-3-3-3--1-1-1-1-1--0-0--0--1--3-|
E|-----------------------------------------------|
 PM. . . .    . . . .    . . . .    . .

e|----------------------------------------|
B|----------------------------------------|
G|---------7----------5----------3--2-----|
D|---------7----------5----------3--2-----|
A|-5-5-5-5-5--3-3-3-3-3--1-1-1-1-1--0-----|      
E|----------------------------------------|    
 PM. . . .    . . . .    . . . .                      
                                              Let ring the bend
                                                      || 
                                                      \/
Outro (Distorsion)                                 /------\
e|---------------------------------------------------------------------------|
B|---------------------------------------------------------------------------|
G|------7--9--9b(10)r9--7-------6b(7)r---------------------------------------|
D|-//7---------------------10----------9b(10)r-7b(8)-----(8)r7~~-----//12~~~-|
A|---------------------------------------------------------------------------|
E|---------------------------------------------------------------------------|
 |                                                                           |
e|---------------------------------------------------------------------------|
B|---------------------------------------------------------------------------|
G|--- Gtr. ---------------------7------5-------3----------2------------7-----|
D|---- II ----------------------7------5-------3----------2------------7-----|
A|------------------------------5------3-------1----------0------------5-----|
E|---------------------------------------------------------------------------|


Written By ArKeRo!!!! Cancion dedicada a todos los colegas del folk-metal!!!!
Marc Fando.. esta tambien va pa ti!! y no nos olvidemos de la peña de mi clase!! (safu, ventu, ana...)
            
Submit corrections

↑ Back to top | Tablatures and chords for acoustic guitar and electric guitar, ukulele, drums are parodies/interpretations of the original songs. You may use it for private study, scholarship, research or language learning purposes only