» » »

Thurston Moore - Vocabularies Tabs

Artists:  A B C D E F G H I J K L M N O P Q R S T U V W X Y Z # 

Vocabularies Tabs

(ver. 1) Click to play this song!
Thurston Moore
 Rating:
4/5 (4 votes)

 Vocabularies  lessons Tabs too difficult? Try these video lessons and learn fast
 
                Tuning: Drop D

Intro (0:20):

e|---------------------------------------------------------------------------|
B|---------------------------------------------------------------------------|
G|-----7------7------7------7------------------------------------------------|
D|-------7------7------7------7----------7-------7-------7-------7-----------|
A|---------10-----10-----10-----10-----9---9---9---9---9---9---9---9---------|
D|-----------------------------------9-------9-------9-------9---------------|

e|---------------------------------------------------------------------------|
B|---------------------------------------------------------------------------|
G|----------------------------------------7-------------2----------2---------|
D|------7-------7-------7-------7---------7-----------3---3-----3----3-------|
A|----9---9---9---9---9---9---9---9-------5----------------------------------|
D|--8-------8-------8-------8-------------0--------3-----------3-------------|

e|---------------------------------------------------------------------------|
B|---------------------------------------------------------------------------|
G|------2--------2-------2--------2--------2--------2--------2--------2------|
D|----0---0----0---0---0---0----0---0----0---0----0---0----0---0----0---0----|
A|---------------------------------------------------------------------------|
D|--2--------2-------0--------0--------2--------2--------1--------1----------|

e|---------------------------------------------------------------------------|
B|---------------------------------------------------------------------------|
G|------2--------2-----------------------------------------------------------|
D|----0---0----0---0---------------------------------------------------------|
A|---------------------------------------------------------------------------|
E|--0--------0---------------------------------------------------------------|

Slidey bit (1:10)

e|---0---0---0---------------------------------------------------------------|
B|---0---0---0---------------------------------------------------------------|
G|---9---12--14--------------------------------------------------------------|
D|---0---0---0---------------------------------------------------------------|
A|---0---0---0---------------------------------------------------------------|
E|---0---0---0---------------------------------------------------------------|

Bridge (1:15)

e|----0-----0-----0----------------------------------------------------------|
B|----0-----0-----0----------------------------------------------------------|
G|--2/9--9/12--12/14----------2--------2---------2--------2------------------|
D|----0-----0-----0---------3---3----3---3-----0---0----0---0----------------|
A|----0-----0-----0----------------------------------------------------------|
E|----0-----0-----0-------3--------3---------2--------2----------------------|

e|---------------------------------------------------------------------------|
B|---------------------------------------------------------------------------|
G|----2--2--2------2--2--2------2--2--2-------2--2--2-------2----------------|
D|----0--0--0------1--1--1------0--0--0-------0--0--0-------0----------------|
A|----3--3--3------0--0--0------3--3--3-------2--2--2-------0----------------|
E|----------------------------------------------------------0----------------|

Repeat once then:

e|----------------------------------------------0------------------------|
B|----------------------------------------------0------------------------|
G|----------------------------------------------14-----------------------|
D|----------------------------------------------0------------------------|
A|---0--0----1--1----3--3-----------------------0------------------------|
E|---0--0----1--1----3--3-----------------------0------------------------|
            
Submit corrections


        Vocabularies  lessons Hard to play? Try these video lessons and learn fast Vocabularies  lessons
        
↑ Back to top | Tablatures and chords for acoustic guitar and electric guitar, ukulele, drums are parodies/interpretations of the original songs. You may use it for private study, scholarship, research or language learning purposes only