Home » T » Thurston Moore »

Thurston Moore - Patti Smith Math Scratch Tabs

Artists:  A B C D E F G H I J K L M N O P Q R S T U V W X Y Z # 

Patti Smith Math Scratch Tabs

(Version #1)
Thurston Moore
INTRO/VERSE:
 
B|-------------------------------|
B|-------------------------------|
G|--0--12-0-10-12--9-5-3--3-3-3--|
D|--0--12-0-10-12--9-5-3--3-3-3--|
G|--0--12-0-10-12--9-5-3--3-3-3--|
C|-------------------------------|
 
CHORUS:
 
B|-----------------------------------------------------|
B|-----------------------------------------------------|
G|----5-8-5--12-10-8-10-10-10----5-8-5--12-10-8-3-3-3--|
D|----5-8-5--12-10-8-10-10-10----5-8-5--12-10-8-3-3-3--| play twice, hold the last chord the 2nd time
G|----5-8-5--12-10-8-10-10-10----5-8-5--12-10-8-3-3-3--|
C|--0-----------------0--0--0--0-----------------------|
 
then play:
 
B|-----------------|                             B|-----------------|
B|-----------------|                             B|-----------------|
G|----------5---5--|                             G|--3-3-3-3-3-3-3--|
D|----------5---5--|                             D|--3-3-3-3-3-3-3--|
G|----------5---5--| repeat several times then : G|--3-3-3-3-3-3-3--|
C|--0-0-0-0---0----|                             C|-----------------|
 
repeat VERSE/CHORUS
 
VERSE:
 
B|-------------------------------|
B|-------------------------------|
G|--0--12-0-10-12--9-5-3--3-3-3--|
D|--0--12-0-10-12--9-5-3--3-3-3--|
G|--0--12-0-10-12--9-5-3--3-3-3--|
C|-------------------------------|
 
CHORUS:
 
B|-----------------------------------------------------|
B|-----------------------------------------------------|
G|----5-8-5--12-10-8-10-10-10----5-8-5--12-10-8-3-3-3--|
D|----5-8-5--12-10-8-10-10-10----5-8-5--12-10-8-3-3-3--| play twice, hold the last chord the 2nd time
G|----5-8-5--12-10-8-10-10-10----5-8-5--12-10-8-3-3-3--|
C|--0-----------------0--0--0--0-----------------------|
            
Submit corrections

↑ Back to top | Tablatures and chords for acoustic guitar and electric guitar, ukulele, drums are parodies/interpretations of the original songs. You may use it for private study, scholarship, research or language learning purposes only