Home » T » Thurston Moore »

Thurston Moore - Germs Burn Tabs

Artists:  A B C D E F G H I J K L M N O P Q R S T U V W X Y Z # 

Germs Burn Tabs

(ver. 1) Click to play this song!
Thurston Moore

Part 1
D|-0-9p7p0-----------------------0-9p7p0-------------------------------9--9-9-9-9-9-9-9-9-9-9-9-9-|
C|-0-0-0-0-7----7--7--7--7-7-7-7-0-0-0-0-7--7----------------------7-7-7--7-7-7-7-7-7-7-7-7-7-7-7-|
G|---------0----0--0--0--0-0-0-0---------0--0-9-7-0------------7-9-0-9-9--9-9-9-9-9-9-9-9-9-9-9-9-|
D|---------0----0--0--0--0-0-0-0---------0--0-0-0-0--------7-9-0-0---0-0--0-0-0-0-0-0-0-0-0-0-0-0-|
G|---------0----0--0--0--0-0-0-0---------0--0----------7-9-0-0------------------------------------|
C|------------------------------------------------------------------------------------------------|


Part 2
D|---------------------------------------------------------8--8--8-8-8-8-8-8-8-8-8-|
C|---------------------------------------------------------8--8--8-8-8-8-8-8-8-8-8-|
G|---------------------------------------------------------8--8--8-8-8-8-8-8-8-8-8-|
D|---------------------------------------------------------8--8--8-8-8-8-8-8-8-8-8-|
G|-7-7-7-10-3-3--7-7-7-10-3-3--7-7-7-10-3-3--7-7-7-10-3-3--8--8--8-8-8-8-8-8-8-8-8-|
C|-7-7-7-10-3-3--7-7-7-10-3-3--7-7-7-10-3-3--7-7-7-10-3-3--8--8--8-8-8-8-8-8-8-8-8-|


T during James' solo
D|---------------------------------------------------------------------------------|
C|---------------------------------------------------------------------------------|
G|---------------------------------------------------------------------------------|
D|-7-7-7-7-7-7-X-X-X-X-7-7-7-7-7-7-X-X-X-X-8-8-8-8-8-8-X-X-X-X-8-8-8-X-X-X-X-X-X-X-|
G|-7-7-7-7-7-7-X-X-X-X-7-7-7-7-7-7-X-X-X-X-8-8-8-8-8-8-X-X-X-X-8-8-8-X-X-X-X-X-X-X-|
C|-7-7-7-7-7-7-X-X-X-X-7-7-7-7-7-7-X-X-X-X-8-8-8-8-8-8-X-X-X-X-8-8-8-X-X-X-X-X-X-X-|


After the solo, play around these (live : James uses the whamy bar, Thurston goes into freak out mode)
D|-------3-----------3-----------3-----------3---
C|-------2-----------2-----------2-----------2---
G|-0-----0-----1-----0-----0-----0-----1-----0---
D|-0-----0-----0-----0-----0-----0-----0-----0---
G|-0-----------0-----------0-----------0---------
C|-----------------------------------------------


Then back to Part 1 twice:
D|-0-9p7p0-----------------------0-9p7p0-------------------------------9--9-9-9-9-9-9-9-9-9-9-9-9-|
C|-0-0-0-0-7----7--7--7--7-7-7-7-0-0-0-0-7--7----------------------7-7-7--7-7-7-7-7-7-7-7-7-7-7-7-|
G|---------0----0--0--0--0-0-0-0---------0--0-9-7-0------------7-9-0-9-9--9-9-9-9-9-9-9-9-9-9-9-9-|
D|---------0----0--0--0--0-0-0-0---------0--0-0-0-0--------7-9-0-0---0-0--0-0-0-0-0-0-0-0-0-0-0-0-|
G|---------0----0--0--0--0-0-0-0---------0--0----------7-9-0-0------------------------------------|
C|------------------------------------------------------------------------------------------------|


Play the end of it 4 times:
D|-----------------9--9-9-9-9-9-9-9-9-9-9-9-9-|
C|-------------7-7-7--7-7-7-7-7-7-7-7-7-7-7-7-|
G|---------7-9-0-9-9--9-9-9-9-9-9-9-9-9-9-9-9-|
D|-----7-9-0-0---0-0--0-0-0-0-0-0-0-0-0-0-0-0-|
G|-7-9-0-0------------------------------------|
C|--------------------------------------------|


Hold the last chord for a while then tremolo pick these:
D|---------------7-
C|-----------7-----
G|-------7-----7---
D|---7-----7-------
G|-----7-----------
C|-7--------------- x4

D|----------------------19-
C|----------------19-------
G|----------19-------19----
D|----19-------19----------
G|-------19----------------
C|-19---------------------- x4

for these two parts above, let some open strings ring while struming furiously


Then go back to Part 2:
D|---------------------------------------------------------8--8--8-8-8-8-8-8-8-8-8-|
C|---------------------------------------------------------8--8--8-8-8-8-8-8-8-8-8-|
G|---------------------------------------------------------8--8--8-8-8-8-8-8-8-8-8-|
D|---------------------------------------------------------8--8--8-8-8-8-8-8-8-8-8-|
G|-7-7-7-10-3-3--7-7-7-10-3-3--7-7-7-10-3-3--7-7-7-10-3-3--8--8--8-8-8-8-8-8-8-8-8-|
C|-7-7-7-10-3-3--7-7-7-10-3-3--7-7-7-10-3-3--7-7-7-10-3-3--8--8--8-8-8-8-8-8-8-8-8-|

Then noise!

Meanwhile, James holds the 8th fret chord for a while and ends on 7th fret (I think)
So if you're not going to try to emulate Thurston, you can still do something like this :
D|-8-----------
C|-8-----------
G|-8-----------
D|-8-----------
G|-8-----7\\\\\
C|-8-----7\\\\\
            
Submit corrections

↑ Back to top | Tablatures and chords for acoustic guitar and electric guitar, ukulele, drums are parodies/interpretations of the original songs. You may use it for private study, scholarship, research or language learning purposes only