» » »

Thrice - Hurricane Tabs

Artists:  A B C D E F G H I J K L M N O P Q R S T U V W X Y Z # 

Hurricane Tabs

(ver. 1) Click to play this song!
Thrice
 Rating:
4.3/5 (29 votes)

 Hurricane  lessons Tabs too difficult? Try these video lessons and learn fast
 
                [Intro]

  Acoustic Guitar                                                   X2
e|--------------------------------|--------------------------------|
B|6-------6---------6-6-6\3---3---|--------------------------------|
G|5-------5---------5-5-5\2---2---|2-------2---------2-2-2/5---5---|
D|3-------3---------3-3-3\0---0---|2-------2---------2-2-2/5---5---|
A|--------------------------------|0-------0---------0-0-0/3---3---|
E|--------------------------------|--------------------------------|

  Lead
e|------5---------------5---------|----------------------5---------|
B|6-----------------5b6---5b6r5---|------------------5b6---5b6r5---|
G|------------------------------7-|5-------------------------------|
D|--------------------------------|------7-------------------------|
A|--------------------------------|--------------------------------|
E|--------------------------------|--------------------------------|
 |Rhyhtm                                                            X2
e|--------------------------------|--------------------------------|
B|--------------------------------|--------------------------------|
G|--------------------------------|--------------------------------|
D|3-------3---------------12--12--|7-------7---------------10--10--|
A|3-------3---------------12--12--|7-------7---------------10--10--|
E|1-------1--------------/10--10--|5-------5--------------/8---8---|


[Verse]

e|--------------------------------|--------------------------------|
B|----6-----6-----6-----6-----6---|--5-----5-----5-----5-----5-----|
G|--5-----5-----5-----5-----5-----|5-----5-----5-----5-----5-----5-|
D|3-------------------------------|--------------------------------|
A|--------------------------------|--------------------------------|
E|--------------------------------|--------------------------------|


e|--------------------------------|--------------------------------|
B|6-----6-----6-----6-----6-----6-|----5-----5-----5-----5-----5---|
G|----5-----5-----5-----5-----5---|--5-----5-----5-----5-----5-----|
D|--------------------------------|--------------------------------|
A|--------------------------------|--------------------------------|
E|--------------------------------|--------------------------------|


e|--------------------------------|--------------------------------|
B|--6-----6-----6-----6-----6-----|5-----5-----5-----5-----5-----5-|
G|5-----5-----5-----5-----5-----5-|----5-----5-----5-----5-----5---|
D|--------------------------------|--------------------------------|
A|--------------------------------|--------------------------------|
E|--------------------------------|--------------------------------|
 |
e|--------------------------------|--------------------------------|
B|--------------------------------|--------------------------------|
G|--------------------------------|--------------------------------|
D|3~---------------------/12~----\|7~---------------------/10~----\|
A|--------------------------------|--------------------------------|
E|--------------------------------|--------------------------------|


e|--------------------------------|--------------------------------|
B|----6-----6-----6-----6-----6---|--5-----5-----5-----5-----5-----|
G|--5-----5-----5-----5-----5-----|5-----5-----5-----5-----5-----5-|
D|--------------------------------|--------------------------------|
A|--------------------------------|--------------------------------|
E|--------------------------------|--------------------------------|
 |
e|--------------------------------|--------------------------------|
B|--------------------------------|--------------------------------|
G|--------------------------------|--------------------------------|
D|3~---------------------/12~----\|7~---------------------/10~----\|
A|--------------------------------|--------------------------------|
E|--------------------------------|--------------------------------|


[Chorus]

e|--------------------------------|----------------------5---------|
B|--------------------------------|------------------5b6---5b6r5---|
G|--------------------------------|--------------------------------|
D|--------------------------------|--------------------------------|
A|--------------------------------|--------------------------------|
E|--------------------------------|--------------------------------|
 |
e|--------------------------------|--------------------------------|
B|--------------------------------|--------------------------------|
G|3-------3-------3-3-----3-------|7-------7-----------------------|
D|3-------3-------3-3-----3-------|7-------7-----------------------|
A|1-------1-------1-1-----1-------|5-------5-----------------------|
E|--------------------------------|--------------------------------|


e|--------------------------------|----------------------5---------|
B|--------------------------------|------------------5b6---5b6r5---|
G|--------------------------------|--------------------------------|
D|--------------------------------|--------------------------------|
A|--------------------------------|--------------------------------|
E|--------------------------------|--------------------------------|
 |
e|--------------------------------|--------------------------------|
B|--------------------------------|--------------------------------|
G|3-------3-------3-3-------------|7-------7-----------------------|
D|3-------3-------3-3-----5-------|7-------7-----------------------|
A|1-------1-------1-1-----5-------|5-------5-----------------------|
E|------------------------3-------|--------------------------------|


e|--------------------------------|--------------------------------|----5-----5---------5-----6-5~--|
B|--------------------------------|------------------------------1/|6-6---6-6---6-6-8-8---8-8-------|
G|--------------------------------|--------------------------------|--------------------------------|
D|--------------------------------|--------------------------------|--------------------------------|
A|--------------------------------|--------------------------------|--------------------------------|
E|--------------------------------|--------------------------------|--------------------------------|
 |
e|--------------------------------|--------------------------------|--------------------------------|
B|--------------------------------|3-------3-------6-6-----6-------|--------------------------------|
G|3-------3-------5-5-----5-------|2-------2-------5-5-----5-------|6-------6-------8-------8-------|
D|3-------3-------5-5-----5-------|0-------0-------3-3-----3-------|6-------6-------8-------8-------|
A|1-------1-------3-3-----3-------|--------------------------------|4-------4-------6-------6-------|
E|--------------------------------|--------------------------------|--------------------------------|


e|------5---------------5---------|----------------------5---------|
B|6-----------------5b6---5b6r5---|------------------5b6---5b6r5---|
G|------------------------------7-|5-------------------------------|
D|--------------------------------|------7-------------------------|
A|--------------------------------|--------------------------------|
E|--------------------------------|--------------------------------|
 |                                                                  X2
e|--------------------------------|--------------------------------|
B|--------------------------------|--------------------------------|
G|--------------------------------|--------------------------------|
D|3-------3---------------12--12--|7-------7---------------10--10--|
A|3-------3---------------12--12--|7-------7---------------10--10--|
E|1-------1--------------/10--10--|5-------5--------------/8---8---|


[Verse]

e|--------------------------------|--------------------------------|
B|----6-----6-----6-----6-----6---|--5-----5-----5-----5-----5-----|
G|--5-----5-----5-----5-----5-----|5-----5-----5-----5-----5-----5-|
D|3-------------------------------|--------------------------------|
A|--------------------------------|--------------------------------|
E|--------------------------------|--------------------------------|


e|--------------------------------|--------------------------------|
B|6-----6-----6-----6-----6-----6-|----5-----5-----5-----5-----5---|
G|----5-----5-----5-----5-----5---|--5-----5-----5-----5-----5-----|
D|--------------------------------|--------------------------------|
A|--------------------------------|--------------------------------|
E|--------------------------------|--------------------------------|


e|--------------------------------|--------------------------------|
B|--6-----6-----6-----6-----6-----|5-----5-----5-----5-----5-----5-|
G|5-----5-----5-----5-----5-----5-|----5-----5-----5-----5-----5---|
D|--------------------------------|--------------------------------|
A|--------------------------------|--------------------------------|
E|--------------------------------|--------------------------------|
 |
e|--------------------------------|--------------------------------|
B|--------------------------------|--------------------------------|
G|--------------------------------|--------------------------------|
D|3~---------------------/12~----\|7~---------------------/10~----\|
A|--------------------------------|--------------------------------|
E|--------------------------------|--------------------------------|


e|--------------------------------|--------------------------------|
B|----6-----6-----6-----6-----6---|--5-----5-----5-----5-----5-----|
G|--5-----5-----5-----5-----5-----|5-----5-----5-----5-----5-----5-|
D|--------------------------------|--------------------------------|
A|--------------------------------|--------------------------------|
E|--------------------------------|--------------------------------|
 |
e|--------------------------------|--------------------------------|
B|--------------------------------|--------------------------------|
G|--------------------------------|--------------------------------|
D|3~---------------------/12~----\|7~---------------------/10~----\|
A|--------------------------------|--------------------------------|
E|--------------------------------|--------------------------------|


[Chorus]

e|--------------------------------|----------------------5---------|
B|--------------------------------|------------------5b6---5b6r5---|
G|--------------------------------|--------------------------------|
D|--------------------------------|--------------------------------|
A|--------------------------------|--------------------------------|
E|--------------------------------|--------------------------------|
 |
e|--------------------------------|--------------------------------|
B|--------------------------------|--------------------------------|
G|3-------3-------3-3-----3-------|7-------7-----------------------|
D|3-------3-------3-3-----3-------|7-------7-----------------------|
A|1-------1-------1-1-----1-------|5-------5-----------------------|
E|--------------------------------|--------------------------------|


e|--------------------------------|----------------------5---------|
B|--------------------------------|------------------5b6---5b6r5---|
G|--------------------------------|--------------------------------|
D|--------------------------------|--------------------------------|
A|--------------------------------|--------------------------------|
E|--------------------------------|--------------------------------|
 |
e|--------------------------------|--------------------------------|
B|--------------------------------|--------------------------------|
G|3-------3-------3-3-------------|7-------7-----------------------|
D|3-------3-------3-3-----5-------|7-------7-----------------------|
A|1-------1-------1-1-----5-------|5-------5-----------------------|
E|------------------------3-------|--------------------------------|


e|--------------------------------|--------------------------------|----5-----5---------5-----6-5~--|
B|--------------------------------|------------------------------1/|6-6---6-6---6-6-8-8---8-8-------|
G|--------------------------------|--------------------------------|--------------------------------|
D|--------------------------------|--------------------------------|--------------------------------|
A|--------------------------------|--------------------------------|--------------------------------|
E|--------------------------------|--------------------------------|--------------------------------|
 |
e|--------------------------------|--------------------------------|--------------------------------|
B|--------------------------------|3-------3-------6-6-----6-------|--------------------------------|
G|3-------3-------5-5-----5-------|2-------2-------5-5-----5-------|6-------6-------8-------8-------|
D|3-------3-------5-5-----5-------|0-------0-------3-3-----3-------|6-------6-------8-------8-------|
A|1-------1-------3-3-----3-------|--------------------------------|4-------4-------6-------6-------|
E|--------------------------------|--------------------------------|--------------------------------|


[Bridge]

e|5-5-5-5-5-5-5-5-----------------|--------------------------------|5-5-5-5-5-5-5-5-8-8-8-8-8-8-8-8-|
B|----------------6-6-6-6-6-5-5-5-|7-7-7-7-7-7-7-7-7-7-7-7-7-6-6-6-|--------------------------------|
G|--------------------------------|--------------------------------|--------------------------------|
D|--------------------------------|--------------------------------|--------------------------------|
A|--------------------------------|--------------------------------|--------------------------------|
E|--------------------------------|--------------------------------|--------------------------------|
 |
e|--------------------------------|--------------------------------|--------------------------------|
B|--------------------------------|--------------------------------|--------------------------------|
G|--------------------------------|--------------------------------|--------------------------------|
D|8-8-8-8-8-8-8-8-5-5-5-5-5-5-5-5-|7-7-7-7-7-7-7-7-7-7-7-7-7-7-7-7-|8-8-8-8-8-8-8-8-5-5-5-5-5-5-5-5-|
A|8-8-8-8-8-8-8-8-5-5-5-5-5-5-5-5-|7-7-7-7-7-7-7-7-7-7-7-7-7-7-7-7-|8-8-8-8-8-8-8-8-5-5-5-5-5-5-5-5-|
E|6-6-6-6-6-6-6-6-3-3-3-3-3-3-3-3-|5-5-5-5-5-5-5-5-5-5-5-5-5-5-5-5-|6-6-6-6-6-6-6-6-3-3-3-3-3-3-3-3-|


[Chorus]

e|--------------------------------|----------------------5---------|
B|--------------------------------|------------------5b6---5b6r5---|
G|--------------------------------|--------------------------------|
D|--------------------------------|--------------------------------|
A|--------------------------------|--------------------------------|
E|--------------------------------|--------------------------------|
 |
e|--------------------------------|--------------------------------|
B|--------------------------------|--------------------------------|
G|--------------------------------|--------------------------------|
D|3-------3-------3-3-----3------/|8-------8-----------------------|
A|3-------3-------3-3-----3------/|8-------8-----------------------|
E|1-------1-------1-1-----1------/|6-------6-----------------------|


e|--------------------------------|----------------------5---------|
B|--------------------------------|------------------5b6---5b6r5---|
G|--------------------------------|--------------------------------|
D|--------------------------------|--------------------------------|
A|--------------------------------|--------------------------------|
E|--------------------------------|--------------------------------|
 |
e|--------------------------------|--------------------------------|
B|--------------------------------|--------------------------------|
G|--------------------------------|--------------------------------|
D|3-------3-------3-3-----3------/|8-------8-----------------------|
A|3-------3-------3-3-----3------/|8-------8-----------------------|
E|1-------1-------1-1-----1------/|6-------6-----------------------|



e|--------------------------------|----------------------5---------|
B|--------------------------------|------------------5b6---5b6r5---|
G|--------------------------------|--------------------------------|
D|--------------------------------|--------------------------------|
A|--------------------------------|--------------------------------|
E|--------------------------------|--------------------------------|
 |
e|--------------------------------|--------------------------------|
B|--------------------------------|--------------------------------|
G|7-------7-------7-7-----7-------|--------------------------------|
D|7-------7-------7-7-----7-------|3-------3-----------------------|
A|5-------5-------5-5-----5-------|3-------3-----------------------|
E|5-------5-------5-5-----5-------|1-------1-----------------------|


e|--------------------------------|--------------------------------|
B|--------------------------------|--------------------------------|
G|--------------------------------|--------------------------------|
D|--------------------------------|--------------------------------|
A|--------------------------------|--------------------------------|
E|--------------------------------|--------------------------------|
 |
e|--------------------------------|--------------------------------|
B|--------------------------------|--------------------------------|
G|6-------6-------8-------8-------|3-------------------------------|
D|6-------6-------8-------8-------|3-------------------------------|
A|4-------4-------6-------6-------|1-------------------------------|
E|--------------------------------|--------------------------------|


[Outro] 

e|--------------------------------|----------------------8---------|
B|8b9~~~~---------------pb9r8~~---|------------------8b9---8b9r8---|
G|--------------------------------|------------------------------10|
D|--------------------------------|--------------------------------|
A|--------------------------------|--------------------------------|
E|--------------------------------|--------------------------------|
 |                                                                  X4
e|--------------------------------|--------------------------------|
B|--------------------------------|--------------------------------|
G|--------------------------------|5-------5-----------------------|
D|3-------3-------3-3-----3-------|5-------5-----------------------|
A|3-------3-------3-3-----3-------|3-------3-----------------------|
E|1-------1-------1-1-----1-------|3-------3-----------------------|


[End]

e|----------------|
B|----------------|
G|10~-----\9~-----|
D|----------------|
A|----------------|
E|----------------|
 |
e|----------------|
B|----------------|
G|----------------|
D|8---------------|
A|8---------------|
E|6---------------|            
Submit corrections


        Hurricane  lessons Hard to play? Try these video lessons and learn fast Hurricane  lessons
        
↑ Back to top | Tablatures and chords for acoustic guitar and electric guitar, ukulele, drums are parodies/interpretations of the original songs. You may use it for private study, scholarship, research or language learning purposes only