» » »

Thrice - Don Tell And We Won Ask Tabs

Artists:  A B C D E F G H I J K L M N O P Q R S T U V W X Y Z # 

Don Tell And We Won Ask Tabs

(ver. 1) Click to play this song!
Thrice
 Rating:
4/5 (4 votes)

 Don	 Tell And We Won	 Ask lessons Tabs too difficult? Try these video lessons and learn fast
 
                Thrice
"Don't Tell & We Won't Ask"


Tuning: D Major, dropping low D to C, reading low to high, CGCFAD


Rythm - Dustin  (not necassarily left channel)

Intro
---------------------------------------------|----------------------------------------
---------------------------------------------|-----------------------------------------
---------------------------------------------|-----------------------------------------
--7---7-7-7-8-8-8--10-----------------------|--8--------------10----------------------
--5-----------------10--12-12-12-10-10-10--|--8--10-10-10---10--12-12-12-10-10-10--
--0-----------------10-----------------------|--8--------------10----------------------

Verse
----------------------------
----------------------------
----------------------------  2nd time through, don't play the F Major
--0--10--8--0--10--8--3----
--0--10--8--0--10--8--3----
--0--10--8--0--10--8--3----


"and if it comes to murder, don't tell and we won't"
----------------
---5-6----------
---------9--7---
-5-----8--------
----------------
----------------

Chorus
-------------------------------------
-------------------------------------
-------------------------------------
-0---10---0---10---5---3---10---8--
-0---10---0---10---5---3---10---8--
-0---10---0---10---5---3---10---8--

"your actions all, are justified"
---------------------------
---------------------------
---------------------------
---0--7--10--0---8---9----
---0--7--8---0---8---7----
---0--7--8---0---8--------

"cause it's, 'need to know'..."
                   (x3)                                                           (x1)
---------------------------------------------|----------------------------------------
---------------------------------------------|-----------------------------------------
---------------------------------------------|-----------------------------------------
--7---7-7-7-8-8-8--10-----------------------|--8--------------10----------------------
--5-----------------10--12-12-12-10-10-10--|--8--10-10-10---10--12-12-12-10-10-10--
--0-----------------10-----------------------|--8--------------10----------------------

"we all need to know"
-------------
-------------
-------------
-8~---10~---
-8~---10~---
-8~---10~---

Break (palm-muted)
-7-7-7--------------------------------------------------------------
--------10-10-10--7-7-7-5-5-5--3-3-3--2-2-2--0-0-0--10-10-10-----

"dont we all know life is sacred"
------------------------------------------
------------------------------------------
------------------------------------------
---8-8-8--5-5-5--8-8-8--10-10-10--0~---
---8-8-8--5-5-5--8-8-8--10-10-10--0~---
---8-8-8--5-5-5--8-8-8--10-10-10--0~---

Outro
         (x3)                                               (x1)
----------------------------|-------------------------------------
-----6----------------------|-------------------------------------
-----------------9----------|-----7---------------9---------------
-7-----7/8---10------------|--8--------------10-------------0~---
-5-----------10----10/12---|--8-----8/10----10-----10/12---0~---
-0-----------10------------|--8--------------10-------------0~---





Lead - Teppei    (not necassarily right channel)

Intro
          (x3)                                (x1)
----------------------|------------------------|
----------------------|------------------------|
---10-10-10---9-9-9--|-------7-7-7----9-9-9--|
-7----------10--------|-----8-------10--------|
-5----------10--------|-----8-------10--------|
-0----------10--------|-----8-------10--------|

Verse
-------------------
-------------------
--9h10p9----------
----------10h12---
-------------------
-------------------

"and if it comes to murder, don't tell and we won't"
----5-6---5------
--------5----8---
--7---------------
------------------
------------------
------------------

Chorus (3 strokes each except for the high D, in which case is 4)
--------13-----12---
------------11------
----14--------------
-12-----------------
---------------------
---------------------

"your actions all, are justified"
---------------------------
---------------------------
---------------------------
---0--7--10--0---8---9----
---0--7--8---0---8---7----
---0--7--8---0---8--------

"cause it's 'need to know'..."
          (x3)                                (x1)
----------------------|------------------------|
----------------------|------------------------|
---10-10-10---9-9-9--|-------7-7-7----9-9-9--|
-7----------10--------|-----8-------10--------|
-5----------10--------|-----8-------10--------|
-0----------10--------|-----8-------10--------|

With an Overdub of
---13-13-13----12-12-12---|------10-10-10-------12-12-12---
----------------------------|----------------------------------
----------------------------|----------------------------------
-12---------10--------------|---8------------10---------------
-12---------10--------------|---8------------10---------------
-12---------10--------------|---8------------10---------------

"we all need to know"
----------------------------
----------------------------
----------------------------
-8--12-8---10--14-10--0~--
-8---8-8---10--10-10--0~--
-8---8-8---10--10-10--0~--

With an Overdub of
---10------12------
------11------13---
-------------------
-8-------10--------
-8-------10--------
-8-------10--------

Break
----------------------------------
----------------------------------
----------------------------------
----------------------------------
----------------------------------
----------------------------------

"dont we all know life is sacred"
-----------17-17-17---15-15-15-15---13-13-13---12-12-------------------
-15-15-15-----------------------------------------------13-13------------

Outro
----------------------------------
----------------------------------
----------------------------------
----------------------------------
----------------------------------
----------------------------------
----------------------------------
            
Submit corrections


        Don	 Tell And We Won	 Ask lessons Hard to play? Try these video lessons and learn fast Don	 Tell And We Won	 Ask lessons
        
↑ Back to top | Tablatures and chords for acoustic guitar and electric guitar, ukulele, drums are parodies/interpretations of the original songs. You may use it for private study, scholarship, research or language learning purposes only