» » »

Thrice - Disarmed Tabs

Artists:  A B C D E F G H I J K L M N O P Q R S T U V W X Y Z # 

Disarmed Tabs

(ver. 1) Click to play this song!
Thrice
 Rating:
2.8/5 (23 votes)

 Disarmed lessons Tabs too difficult? Try these video lessons and learn fast
 
                Intro:

E|------------------------------------------------
B|------------------------------------------------
G|--------5-----------5-----------5---------------
D|-----5-----5-----5-----5-----5-----5--7/9\7--5--
A|--7-----------7-----------7---------------------
E|------------------------------------------------

Verse:

E|------------------------------------------------------------------------------------------------
B|------------------------------------------------------------------------------------------------
G|--------5-----------5-----------5-----------5-----------5-----------5-----------5---------------
D|-----5-----5-----5-----5-----5-----5-----5-----5-----5-----5-----5-----5-----5-----5--7/9\7--5--
A|--7-----------7-----------7-----------7-----------7-----------7-----------7---------------------
E|------------------------------------------------------------------------------------------------

Verse cont.:

E|---------------------------------------------------------------------------------------
B|---------------------------------------------------------------------------------------
G|--------5-----------5-----------5-----------5-----------5-----------5-----5--5--5--5-5-
D|-----5-----5-----5-----5-----5-----5-----5-----5-----5-----5-----5-----5--5--5--5--5-5-
A|--7-----------7-----------7-----------7-----------7-----------7-----------7--7--7--7-7-
E|---------------------------------------------------------------------------------------

Chorus:

E|---------------------------------------------------------------------------------------------------
B|------------6p5------5----------------6p5-----8/10-----------------6p5-----5----6-6-6-6-5----------
G|-------5--------5--5----5-------5----------5-------9-----------5-------5-5---5--5-5-5-5-5-5-5-5-5--
D|-5h7-7---7------------------5h7-----7------------------5h7--7----7------------------------7-7-7-7--
A|---------------------------------------------------------------------------------------------------
E|---------------------------------------------------------------------------------------------------

Bridge:

E|------------------------------------------------------------------
B|--13----------13----------13------15----------15----------15------
G|------16----------16----------16------16----------16----------16--
D|----------14----------14------------------14----------14----------
A|------------------------------------------------------------------
E|------------------------------------------------------------------

Bridge cont.:

E|------------------------------------------------------------------
B|--13----------13----------13------13----------13----------13------
G|------16----------16----------16------16----------16----------16--
D|----------14----------14------------------14----------14----------
A|------------------------------------------------------------------
E|------------------------------------------------------------------

Outro:

E|------------------------------------------------------------------------------------------------------
B|-12-12-12-13-13-13-13-13-17-17-17-17-17-17-17-17--13-------13-------13-----13--------13---------13----
G|-12-12-12-12-12-12-12-12-12-12-12-12-12-12-12-12-----12-12----12-12----12-----16---------16--------16-
D|---------------------------------------------------------------------------------14----------14-------
A|------------------------------------------------------------------------------------------------------
E|------------------------------------------------------------------------------------------------------            
Submit corrections


        Disarmed lessons Hard to play? Try these video lessons and learn fast Disarmed lessons
        
↑ Back to top | Tablatures and chords for acoustic guitar and electric guitar, ukulele, drums are parodies/interpretations of the original songs. You may use it for private study, scholarship, research or language learning purposes only