» » »

Thrice - Circles Tabs

Artists:  A B C D E F G H I J K L M N O P Q R S T U V W X Y Z # 

Circles Tabs

(ver. 1) Click to play this song!
Thrice
 Rating:
4.3/5 (9 votes)

 Circles lessons Tabs too difficult? Try these video lessons and learn fast
 
                [Intro]

e|---------------------------------------------------------------------------|
B|-1---1---1---3---1---1---1---3---------------------------------------------|
G|---3---3---3---3---3---3---3---3-------------------------------------------|
D|---------------------------------------------------------------------------|
A|---------------------------------------------------------------------------|
E|---------------------------------------------------------------------------|


[Verse] x2

e|-1--3--------------------------1--3----------------------------------------|
B|------3---3---3---3---3---3---------3---3---3---3---3---3------------------|
G|--------3---3---3---3---3---3---------3---3---3---3---3---3----------------|
D|---------------------------------------------------------------------------|
A|---------------------------------------------------------------------------|
E|---------------------------------------------------------------------------|

e|-6--1-------------------------------------------------3---3---3---3---3----|
B|------3---3---3---3---3---3---4---4---4---4---4---4------------------------|
G|--------3---3---3---3---3---3---3---3---3---3---3---3---3---3---3---3---3--|
D|---------------------------------------------------------------------------|
A|---------------------------------------------------------------------------|
E|---------------------------------------------------------------------------|


[Chorus]

e|--------------------3---5--6--1--3------------------------3---5--6--\10----|
B|-1---1---1---3---\6---6------------1---1---1---1---3---\6---6--------------|
G|---3---3---3---3---------------------3---3---3---3---3---------------------|
D|---------------------------------------------------------------------------|
A|---------------------------------------------------------------------------|
E|---------------------------------------------------------------------------|

e|-8-------------------------------------------------------------------------|
B|---------------------------------------------------------------------------|
G|---------------------------------------------------------------------------|
D|---------------------------------------------------------------------------|
A|---------------------------------------------------------------------------|
E|---------------------------------------------------------------------------|


[Outro]

e|---------------------------------------------------------------------------|
B|---------------------------------------------------------------3-----------|
G|-2h3--2h3--2h3--2h3--2h3--2h3--2h3--2h3--2h3--2h3-2h3p-0--0--0------0-0-0-0|
D|----------------------------------------------------------------0-3--------|
A|---------------------------------------------------------------------------|
E|---------------------------------------------------------------------------|

e|---------------------------------------------------------------------------|
B|-------3-------3-------------3--------3---------------3--------------------|
G|-2h3-2---2h3-2---2-2h3--2h3-2---2h3-2---2-2h3-0--0--0---0---0--0--0--0-----|
D|----------------------------------------------------------3----------------|
A|---------------------------------------------------------------------------|
E|---------------------------------------------------------------------------|

e|-10tr-11tr-10tr-|-10tr-11tr-13tr-11tr-10tr-|-11tr-13tr-15tr-13tr-11tr---15-|
B|----------------|--------------------------|-------------------------------|
G|----------------|--------------------------|-------------------------------|
D|----------------|--------------------------|-------------------------------|
A|----------------|--------------------------|-------------------------------|
E|----------------|--------------------------|-------------------------------|            
Submit corrections


        Circles lessons Hard to play? Try these video lessons and learn fast Circles lessons
        
↑ Back to top | Tablatures and chords for acoustic guitar and electric guitar, ukulele, drums are parodies/interpretations of the original songs. You may use it for private study, scholarship, research or language learning purposes only